música
Buscador

Acorde de Sky Starts Falling - Doves

Letra de Sky Starts Falling



B* fig.1 = play this on B* chords in verse :

e --X---X---X----X----X----X----X---X---X----X----X----X

B --2---2---2----2----2----2----2---2---2----2----X----X

G --6---6---6----4----4----4----6---6---6----4----4----4

D --4---4---4----4----4----4----4---4---4----4----4----4

A --2---2---2----2----2----2----2---2---2----2----2----2

E --2---2---2----2----2----2----2---2---2----2----2----2





** Fig.2 = you can play **Fig.2 on the C#m(sus4) and the E chords :

e --X----X---X----X----X----X---X---X---X---

B --4----4---4----4----4----4---4---4---4---

G --8----8---8----6----4----6---6---6---6--- X 4

D --6----6---6----6----6----6---6---6---6---

A --4----4---4----4----4----4---4---4---4---

E --4----4---4----4----4----4---4---4---4---





B* E

Who am I supposed to be?



B* C#m

I can't be sure that the next one will see me



B*

And if the sky starts falling on the street outside



E

The only thing that satisfies



B*

If the sky starts falling on the heads outside



E F# E

The only thing that keeps me alive



C#m E B

If you see her again, be sure to say hello



C#m

Be sure to send my love



C#m E

Did she seem like before



B

Could you seem above it all





C#min

Be sure to send my love







instrumental : B - E (x2)





B* E

Wake up, waking up to see



B*

It's a sign



C#m

That what will be will be

https://www.coveralia.com/acordes/sky-starts-falling-doves.php




B*

And if the sky starts falling on the street outside



E

The only thing that satisfies



B*

If the sky starts falling on the heads outside



E F# E - F# E

The only thing that keeps me alive



C#m(sus4)** E C#(sus4) ** Play Fig. 2

I swear I heard her call, call my name



E **

I swear I heard her call, can I move on



C#m E B

If you see her again, be sure to say hello



F#

Be sure to send my love



C#m E

Did she seem like before



B

Can't you see above it all



C#m

Be sure to send my love





instrumental : B - E (x2)





C#m(sus4)** E** C#m(sus4)** Play Fig. 2

I swear I heard her call, call my name



E**

I swear I heard her call, can I move on





instrumental : C#min - E - B - F#





C#m E

Did she call herself a friend?



B C#m

Don't call on me again, don't call on me again



C#m E

Did she seem like before



B

Did she seem above it all



C#min

Be sure to send my love





Letra subida por: Anónimo

Discos en los que aparece este acorde: Some Cities

El acorde de Sky Starts Falling de Doves es una versión de la canción original realizada por colaboradores/usuarios de Coveralia.

¿Has encontrado algún error en esta página? Envíanos tu corrección del acorde