música
Buscador

Acorde de Sin Rencor - Inspector

Acordes:



e b g D A E

G 3 3 4 5 5 X

Bm (1) 2 3 4 4 2 X

Bm (2) 7 7 7 9 9 X

F 5 6 5 7 8 X

E7 7 9 7 9 7 X

Am7 5 5 5 5 7 X

Cm 3 4 5 5 3 X

C7 3 5 3 5 3 X

D7 5 7 5 7 5 X

Em 7 8 9 9 7 X

C 3 5 5 5 3 X











e.|-----------|---------------|-----|----|---------|

B.|---3-------|------------3--|-----|-3-|-/6----5-|

G.|---------4-|------4--5-----|-4---|----|---------|

D.|-----------|--5------------|-----|----|---------|

A.|-----------|---------------|-----|----|---------|

E.|-----------|---------------|-----|----|---------|



e.|-----------|---------------|--------|------|--3-----------|

B.|--3--------|--3-----5------|------3-|-4----|-------6---4--|

G.|---------5-|------------5--|-5------|------|--------------|

D.|-----------|---------------|--------|------|--------------|

A.|-----------|---------------|--------|------|--------------|

E.|-----------|---------------|--------|------|--------------|



e.|--------|----------3--|-6------5--|--3-----2----3---|

B.|--3-----|-------------|-----------|-----------------|

G.|--------|---4---------|-----------|-----------------|

D.|--------|-------------|-----------|-----------------|

A.|--------|-------------|-----------|-----------------|

E.|--------|-------------|-----------|-----------------|











G Bm(1)

Si tienes raz0n

F E7

por haberte mentido, enganado,

Am7

te pido perd0n.



Cm G

S? que no olvidar?

C7

las promesas de amores

D7 G

que un dia yo te jur?.



G Bm(1)

Si tienes raz0n

F E7

pero sabemos que los culpables

Am7

fuimos los dos.



Cm G

S? que te traicion?

https://www.coveralia.com/acordes/sin-rencor-inspector.php

C7 D7

y por esas malditas razones

G

te perder?.



(CORO)



Em

S? que no son justas

Bm

o injustas mis razones

Em

te pido que lo olvides,



te pido que perdones

Bm

y hagamos el amor,

Bm-Bbm Am7 Cm

sin rencor, sin rencor

G D7

hasta el amanecer.



SOLO DE SAX



G Bm(1)

Si tienes raz0n

F E7

pero sabemos que los culpables

Am7

fuimos los dos.



Cm G

S? que te traicion?

C7 D7

y por esas malditas razones

G

te perder?.



(CORO)



Em

S? que no son justas

Bm

o injustas mis razones

Em

te pido que lo olvides,



te pido que perdones

Bm

y hagamos el amor,

Bm-Bbm Am7 Cm

sin rencor, sin rencor

G

hasta el amanecer.







G

No, no, no, no, no

Bm

no te quiero perder

C

Si, Si, Si

Cm

hagamoslo otra vez. X3



Letra subida por: Anónimo

Discos en los que aparece este acorde: Alma En Fuego

El acorde de Sin Rencor de Inspector es una versión de la canción original realizada por colaboradores/usuarios de Coveralia.

¿Has encontrado algún error en esta página? Envíanos tu corrección del acorde