música
Buscador

Acorde de Sin Poderte Hablar - Willie Colon

Letra de Sin Poderte Hablar

INTRO PIANO



Cm Gm G# G Dm G Cm



INTRO FLAUTA



Cm Bb G# G G Bb G Bb-B-Cm



e -----------------------6--------------8-------------6-------6---6-7-8---

B -------6----8-----6--8----8------6--8---8------8--8---8-6-8---8---------

G --5--8----8-------------------------------------------------------------

D ------------------------------------------------------------------------

A ------------------------------------------------------------------------

E ------------------------------------------------------------------------



SOLO BAJO Y FLAUTA 1



Cm Cm F Cm Cm F Cm Cm F VIOLIN



e ------------------------------------------------- e ----------------8-

B --------6-----------6-----8--6--------------6---- B --5-6--7-7-8-8----

G --5--5--------5--5-------------8--5----5--5------ G ------------------

D ------------------------------------------------- D ------------------

A ------------------------------------------------- A ------------------

E ------------------------------------------------- E ------------------



Cm Cm F Cm Cm F VIOLIN



e ------------------------------------------- e -------6-------6---6-7-8-

B --------6---8-6--------------6---8--8-8-8-- B --8--8---8-6-8---8-------

G --5--5-----------8--5---5-5---------------- G -------------------------

D ------------------------------------------- D -------------------------

A ------------------------------------------- A -------------------------

E ------------------------------------------- E -------------------------





Cm Fm G#

Sé que no debo decir

G Cm

lo que dicta mi emoción

C Fm

siento que gustas de mi

Bb D# Gm Cm

y no sé por cuál razón





Cm Fm G#

Los celos me están matando

G Cm

quiero estar cerca de ti

C Fm

y mi amor te está esperando

Bb D# Gm Cm

yo te quiero hacer feliz



Cm C Fm G#

(Ay, ay, ay, Ay)

Quisiera decirte tantas cosas

G Cm

(Cuando tú me estás mirando)

pero ya sé que la vida es así

Cm G# G

(Cuánto tiempo va pasando,

Cm

y yo sin poderte hablar)





SOLO BAJO Y FLAUTA 2





Cm Cm F Cm Cm F Cm Cm F VIOLIN



e -------------------------------------------------- e ------------8-

B --------6-----------6-----8--6---------------6---- B --8-6---6-8---

G --5--5--------5--5-------------8--5----5--5------- G ------8-------

D -------------------------------------------------- D --------------

A -------------------------------------------------- A --------------

E -------------------------------------------------- E --------------



Cm Cm F Cm Cm F VIOLIN



e --------------------------------------- e ---------------

B --------6------8--6---------------6---- B --8-6---6-8----

G --5--5--------------8--5----5--5------- G ------8------5-

D --------------------------------------- D ---------------

A --------------------------------------- A ---------------

E --------------------------------------- E ---------------



Cm Cm F Cm Cm F VIOLIN



e --------------------------------------- e ------------8-

B --------6------8--6---------------6---- B --8-6---6-8---

G --5--5--------------8--5----5--5------- G ------8-------

D --------------------------------------- D --------------

A --------------------------------------- A --------------

E --------------------------------------- E --------------



Cm Cm F Cm Cm F VIOLIN



e --------------------------------------- e ------------8-

B --------6------8--6---------------6---- B --8-6---6-8---

G --5--5--------------8--5----5--5------- G ------8-------

D --------------------------------------- D --------------

A --------------------------------------- A --------------

E --------------------------------------- E --------------





Cm Fm G#

Sé que no debo decir

G Cm

lo que dicta mi emoción

C Fm

siento que gustas de mi

Bb D# Gm Cm

y no sé por cuál razón



Cm Fm G#

Los celos me están matando

G Cm

https://www.coveralia.com/acordes/sin-poderte-hablar-willie-colon.php

quiero estar cerca de ti

C Fm

y mi amor te está esperando

Bb D# Gm Cm

yo te quiero hacer feliz



Cm C Fm G#

(Ay, ay, ay, Ay)

Si pudiera decirte solamente una palabra:

G Cm

(Cuando tú me estás mirando)

Mía serás

Cm G# G

(Cuánto tiempo va pasando,

Cm G# G

y yo sin poderte hablar)



G Cm G

y yo sin poderte hablar)



FLAUTA



e ----8-8-8-7-6-5-4-3-

B --5-----------------

G --------------------

D --------------------

A --------------------

E --------------------

G Cm G

y yo sin poderte hablar)



e ----8-8-8-7-6-5-4-3-

B --5-----------------

G --------------------

D --------------------

A --------------------

E --------------------



G Cm G

(Y yo sin poderte hablar) Quédate sentada donde estás

G Cm G

(Y yo sin poderte hablar) hasta el fin como si nada

G Cm G

(Y yo sin poderte hablar) a tu lado tu control

G Cm G

(Y yo sin poderte hablar) podrá notar nuestras miradas

G Cm G

(Y yo sin poderte hablar) Usted me desespera,

G Cm G

(Y yo sin poderte hablar) ya no puedo controlarme

G Cm G

(Y yo sin poderte hablar) Daría la vida entera

G Cm G

(Y yo sin poderte hablar) por poder besarte,

G Cm G

(Y yo sin poderte hablar) pero tan sólo puedo mirarte nena

G Cm G

(Y yo sin poderte hablar) Y yo sin poderte hablar...

G Cm

(Y yo sin poderte hablar)



FLAUTA X4



Cm G Cm

e -----8-8-7--------------------------------------------------------

B --6--------8------6---9-9-8-8------6---8-8-6--8----3---6-6-4------

G --------------------------------------------------------------5---

D ------------------------------------------------------------------

A ------------------------------------------------------------------

E ------------------------------------------------------------------



G Cm G

(Y yo sin poderte hablar)



FLAUTA



e ----8-8-8-7-6-5-4-3-

B --5-----------------

G --------------------

D --------------------

A --------------------

E --------------------

G Cm G

y yo sin poderte hablar)



e ----8-8-8-7-6-5-4-3-

B --5-----------------

G --------------------

D --------------------

A --------------------

E --------------------



G Cm G

(Y yo sin poderte hablar) Que mala suerte la mía

G Cm G

(Y yo sin poderte hablar) si yo pudiera hablarte

G Cm G

(Y yo sin poderte hablar) te diría lo que siento

G Cm G

(Y yo sin poderte hablar) tú serías mi amante

G Cm G

(Y yo sin poderte hablar) pero tan sólo puedo mirarte nena

G Cm G

(Y yo sin poderte hablar) Y yo sin poderte hablar...

G Cm G

(Y yo sin poderte hablar) En un cuarto lleno de gente

G Cm G

(Y yo sin poderte hablar) un corazón agonizaba,

G Cm G

(Y yo sin poderte hablar) sabiendo que nunca jamás

G Cm G

(Y yo sin poderte hablar) podrá lograr lo que esperaba





SOLO BAJO Y FLAUTA 2





Letra subida por: Anónimo

El acorde de Sin Poderte Hablar de Willie Colon es una versión de la canción original realizada por colaboradores/usuarios de Coveralia.

¿Has encontrado algún error en esta página? Envíanos tu corrección del acorde