música
Buscador

Acorde de Simple - Division Minuscula

Letra de Simple

intro



e:----------------------------------------------------------------------

b:----------------------------------------------------------------------

d:----------------------------------------------------------------------

g:----333---333--33---333---333--33-------------------------------------

a:-111---111---11--000---000---00-----555---555--55----333---333---0----

e:---------------------------------333---333---33---111---111----3------





SEGUNDA PARTE

e:----------------------------------------------------------------------

b:----------------------------------------------------------------------

d:--3--------8---8---7--5-----------------------------------------------

g:--3----3---8---8---7--5-----------------------------------------------

a:--1----3---6---6---5--3-----------------------------------------------

e:-------1--------------------------------------------------------------

|

|

(en esta nota cambian a un rasgueo mas rapido, se nota muy facil en la rola)





A# A* G F

Intente dormir y no soñar y todo fue al reves, soñe despierto

A# A* G F

tal ves fue por que estabas ahi en mi almohada junto a mi, ahora lo entiendo

D# A# A A#

le temo a la oscuridad, pero tu estabas aqui

A# A* G F

Tomando el tiempo para escuchar quejarme de lo mal, que me va

A# A* G F

tomando el tiempo para desglozarme siento un poco mas, poco mas



A# F5 D#

Nada mas

A# F

simplemente no quiero saber si esto durara

A# F5 D#

gracias

A# F

https://www.coveralia.com/acordes/simple-division-minuscula.php

simplemente por estar aqui sentada junto a mi

D# A# A A#

mañana un dia nuevo sera espero que sigas aqui





(SEGUNDA PARTE)



A# A* G F

Intente reir y no llorar y todo fue al reves

A# A* G F

intente huir y no quedarme y todo fue al reves





A# F5 D#

Nada mas

A# F

simplemente no quiero saber si esto durara

A# F5 D#

gracias

A# F

simplemente por estar aqui sentada junto a mi

D# A# A A#

mañana un dia nuevo sera espero que sigas aqui





(termina con SEGUNDA PARTE)





A# A* D# F F5 G

e:--------------------------------------------------------------

b:--------------------------------------------------------------

d:---3-------3------8------------10-----------------------------

g:---3-------3------8------3-----10-----5-----------------------

a:---1-------0------6------3-----8------5-----------------------

e:-------------------------1------------3-----------------------









Letra subida por: Anónimo

Discos en los que aparece este acorde: Extrañando Casa

El acorde de Simple de Division Minuscula es una versión de la canción original realizada por colaboradores/usuarios de Coveralia.

¿Has encontrado algún error en esta página? Envíanos tu corrección del acorde