música
Buscador

Acorde de Si Me Quieres Escribir - Canallas

 MI5                   SI5
 Si me quieres escribir, ya sabes mi paradero

 MI5                   SI5
 Si me quieres escribir, ya sabes mi paradero
 
 MI5             RE5         DO5        SI5
 Tercera brigada mixta, primera linea de fuego

 MI5             RE5         DO5        SI5
 Tercera brigada mixta, primera linea de fuego
 
 E--7--|--7--|-
 B--8--|--7--|-    Estos son los acordes de las 
 G--9--|--8--|-    estrofas. Se hacen con ritmo de Ska
 D--9--|--9--|-    (escucha LA canción)
 A--7--|--9--|-
 E-----|--7--|-
    MI    SI     arm=armónicos artificiales 

 MI                        SI                MI 
 Aunque me tiren el puente y también la pasarela (bis)

 MI5                RE5      DO5           SI5        
 me veras pasar el Ebro, en un barquito de vela (bis) 

 Sigue así el resto de la canción, aunque hay otros cambios de ritmo:
 
 Oh, Oh, Oh,etc
 E-----------------------------------------
 B-----------------------------------------
 G-----------------------------------------
 D-------------5-arm--5--------------------
 A---7-5-77-7-5-7--------------5-77--------
 E-----------------------7-arm-------------

 Este es el pequeño punteo, aunque quiza lo toquen en  otra posición 
 (aunque este suena parecido), escucha la canción.

 E------------------------------------------
 B------------------------------------------
 G------------------------------------------
 D--9-7---------7-9--9-7--------------------
 A------10-9-10----------10-9-10-9-7--------
 E-----------------------------------7------

 E------------------------------------------
 B------------------------------------------
 G------------------------------------------
 D--9-7---------7-9--9-7--------------------
 A------10-9-10----------10-9-10-9-7--------
 E------------------------------------------


Letra subida por: Anónimo

Discos en los que aparece este acorde: ¡Nunca Mas!

El acorde de Si Me Quieres Escribir de Canallas es una versión de la canción original realizada por colaboradores/usuarios de Coveralia.

¿Has encontrado algún error en esta página? Envíanos tu corrección del acorde