música
Buscador

Acorde de Si Me Besas - Sin Bandera

Letra de Si Me Besas

A                  E

Se bien que ya no puedes dormir

A E

Sueñas que yo sueño junto a ti

F#m E D

Se bien que no quieres despertar sin mi



A E

Yo sé que no hay nada que perder

A E

Que tu puedes ser esa mujer

F#m E D

La piel de la noche y del amanecer



E D E

Mírame no lo pienses mas

D E

Déjate llevar



CORO:



A

Si me besas una vez

E

Pongo el mundo a tus pies

F#m D

Por tus labios pierdo la razón

A

Si me besas dos o tres

E

Mil estrellas bajaré

F#m D

No hay medidas para el corazón

E D E

Si me besas una vez yo vuelvo a nacer





A E

Lo sé tienes miedo y yo también

A E

Lo sé que es difícil de entender

F#m E D

Hablar se que puede hacernos tanto bien





E D E

Es nuestra oportunidad

D E

Basta de esperar



CORO:



A

//Si me besas una vez

E

Pongo el mundo a tus pies

F#m D

Por tus labios pierdo la razón

A

Si me besas dos o tres

E

Mil estrellas bajaré

https://www.coveralia.com/acordes/si-me-besas-sin-bandera.php
F#m D

No hay medidas para el corazón//





(Solo)



e----------9-7---------------------------------

b--8/10---------10-9-10-10----9-10--7/9/7---7--

g-------7---------------------------------9----

d----------------------------------------------

a----------------------------------------------

E----------------------------------------------





e------------------9-7-9-9/10-10/12-12---------

b-------7-9/10---------------------------------

g-5/7-9---------7------------------------------

d----------------------------------------------

a----------------------------------------------

E----------------------------------------------



e-10-9--9/10---7-------------------------------

b----------------10-9-7-5----------------------

g-------------------------7-6-6----------------

d----------------------------------------------

a----------------------------------------------

E----------------------------------------------





E D E

Es nuestra oportunidad

D E

Basta de esperar



CORO:



A

//Si me besas una vez

E

Pongo el mundo a tus pies

F#m D

Por tus labios pierdo la razón

A

Si me besas dos o tres

E

Mil estrellas bajaré

F#m D

No hay medidas para el corazón//



A-E-F#m-D



A

///Si me besas

E

Si me besas

F#m D

Pierdon la razón///





A

Si me besas...

Letra subida por: Anónimo

El acorde de Si Me Besas de Sin Bandera es una versión de la canción original realizada por colaboradores/usuarios de Coveralia.

¿Has encontrado algún error en esta página? Envíanos tu corrección del acorde