música
Buscador

Acorde de Si Et Quedes Amb Mi - Sopa De Cabra

Letra de Si Et Quedes Amb Mi

G C9 G C9 G C9 G C9



G C9

Més lluny de les muntanyes

G C9

jo vull trobar un racó

G C9

per viure sense pressa

G C9

i ser l'omra del teu cos.



D C G

Si et quedes, aah!, si et quedes amb mi.



G C9 G C9



G C9

No et puc donar riquesa

G C9

no puc donar-t'ho tot

G C9

puc ser el teu llarg viatge

G C9

puc ser la llum del sol.



D C G

Si et quedes aah!, si et quedes amb mi



G C9 G C9



D

Quan estiguis cansada

C

jo et donaré repòs

D

quan res no vulguis veure

C

t'ompliré els ulls de flors.



D

De dia quan despertis

C

vull estar al teu cantó

D

vull tenir les mans buides

C

per prendre el teu amor.



G C9

Quan se't tanquin les portes

G C9

jo t'obriré el balcó

G C9

quan creguis que estàs sola

G C9

podràs cridar el meu nom.



D C G

Si et quedes, aah!, si et quedes amb mi.



https://www.coveralia.com/acordes/si-et-quedes-amb-mi-sopa-de-cabra.php

G C9 G C9



Guitarra 1:-> C9 G C9 G C9 G C9 G C9 G C9 G C9 G C9



Guitarra 2: Solo

e|------------0-2-2-2-0------0-2-2-2-0----------------------------------------

B|-----0-1-3------------3-3-----------------0-1-3--3-1-1-1-0------------------

G|-0-0----------------------------------0-0------------------2-0--0-0------2--

D|---------------------------------------------------------------------4-2----

A|----------------------------------------------------------------------------

E|----------------------------------------------------------------------------





e|--------------------------------------------------------0----

B|-3-3-3-1-0-1--1-1-0---------------------0-3-3-3-3-1-0-----3--

G|--------------------2-0--0-----2------0---------------0------

D|---------------------------4-2---0--0------------------------

A|-------------------------------------------------------------

E|-------------------------------------------------------------



e|-----0-3-3-3-3-2-0-7-5--

B|-3-3--------------------

G|------------------------

D|------------------------

A|------------------------

E|------------------------





D

No vull guanyar cap guerra,

C

no vull ser el teu heroi,

D

no vull fer cap promesa,

C

no vull entendre el món



D

Despinta les banderes

C

i fes-ne un gran llençol

D

per sobre les fronteres

C

podràs sentir-me a prop.



G C9

Més lluny de les muntanyes

G C9

jo vull trobar un racó

G C9

per viure sense pressa

G C9

i ser l'omra del teu cos.



D C D C

Si et quedes aah! Si et quedes aah!

G C9 G C9 G C9 G

Si et quedes amb mi, si et quedes amb mi, si et quedes amb mi.

Letra subida por: Anónimo

El acorde de Si Et Quedes Amb Mi de Sopa De Cabra es una versión de la canción original realizada por colaboradores/usuarios de Coveralia.

¿Has encontrado algún error en esta página? Envíanos tu corrección del acorde