música
Buscador

Acorde de She's A Woman - The Beatles

Letra de She's A Woman

Intro:  D7 C7 A7



PRIMEIRA PARTE:

A7 D7 A7 D7 A7

My love dont give me presents I know that she's no peasant

D7

Only ever has to give me love for ever and for ever

A7 D7 A7 D7

My love dont give me presents turn me on when I get lonely

E7 A7 D7 A7

People tell me that she's only fooling I know she isn't



A7 D7 A7 D7 A7 She don't give boy's the eye she ates to see me cry

D7

She is happy just to hear me say that I will never leave her

A7 D7 A7 D7

She don't give boys the eye she will never make me jealous

E7 A7 D7 A7

Give me all her time as well as loving don't ask me why



C#m F# C#m A7 She's a woman who understand she's a woman who loves her man



REPETIR A PRIMEIRA PARTE E DEPOIS A PARTE SOLO COM A BASE:



SOLO:

https://www.coveralia.com/acordes/she-s-a-woman-the-beatles.php

A7 E7 A7

E|--8--5-------------8--5----------------10---8---77-7/5---5---3---22-2-0----3---7------10-10/8-

B|---------------------------------------------------------------------------------7/11---------

G|--------5/7-7/5----------5/7-7/5----11----9---7----7/5-6---4---2----2-2--4---7-----------11/9-

D|----------------7----------------7------------------------------------------------------------

A|----------------------------------------------------------------------------------------------

E|----------------------------------------------------------------------------------------------



E|--8--5------------

B|------------------

G|--------5/7-7/5---

D|----------------7-

A|------------------

E|------------------





C#m F# C#m A7

She's a woman who understand she's a woman who loves her man



REPETIR A PRIMEIRA PARTE E TERMINAR ASSIM:



A7

She's a woman She's a woman She's a woman She's a woman ...

El acorde de She's A Woman de The Beatles es una versión de la canción original realizada por colaboradores/usuarios de Coveralia.

¿Has encontrado algún error en esta página? Envíanos tu corrección del acorde