música
Buscador

Acorde de Se Me Olvidó - Antonio Orozco

Letra de Se Me Olvidó

 ___ acordes _____
|                 |
|  C:    032010   |
|  G:    320001   |
|  F:    133211   |
|  Dm:   000231   |
|  F:    133211   |
|  Am:   002210   |
|_________________|


[cejilla en el 1er traste]

[intro]:
        C                 G
E-||---|3--------5-------|3----------------
B-||-1s(3)----1s(5)----1s(3)---------------
G-||---|-----------------|-----------------
D-||---|-----------------|-----------------
A-||---|-----------------|-----------------
E-||---|-----------------|-----------------

        Dm                F
E-||---|3----------------|3----------------|
B-||-1s(3)-------------1s(3)---------------|
G-||---|-----------------|-----------------|
D-||---|-----------------|-----------------|
A-||---|-----------------|-----------------|
E-||---|-----------------|-----------------|


C                        G
El tiempo no basta, mis días no pasan,
           Dm
Ni aun queriendo podría
      F
explicar como fue.

   C                   G
Tenía en mis manos un mundo perfecto,
     Dm
Los sueños cumplidos
          F
y otra vez se me fue.

    G                       Am
Le di tantas noches al que nunca dormía,
   G                      F
Robé tantos sueños sin saber que lo hacía.

               C
Que se me olvidó
                G
ponerle los candados al amor,
           Dm
Se me olvidó
                F
ponerme tus verdades de colchón,
           G
Se me olvidó
               Am                        F
restarle cada día una mentira a tu atención,
           G
Se me olvidó
                      C
y otra vez se me perdió.


[sobre intro]
   G

           Dm
Se me olvidó.
   F


    C                   G
La culpa no calla, los versos resbalan.
          Dm
Ni aun sabiendo podría
       F
encontrarte otra vez.

      C                     G
La espera, el tormento, la pena, descuento,
    Dm
Rencores y olvido
       F
preguntando otra vez.

    G                           Am
Perdí tanto y tanto que hoy no cuentan los días,
    G                       F
Tardé tanto tiempo en entender lo que hacía

               C
Que se me olvidó
                G
ponerle los candados al amor,
           Dm
Se me olvidó
                F
ponerme tus verdades de colchón,
           G
Se me olvidó
               Am                        F
restarle cada día una mentira a tu atención,
           G
Se me olvidó
                      C
y otra vez se me perdió.


[solo]:
    C                 G
E-||--------1----0---|-----------------|
B-||-----------------|1------0---------|
G-||0----------------|-----------------|
D-||-----------------|-----------------|
A-||-----------------|-----------------|
E-||-----------------|-----------------|
                                 Se me olvidó.

    Dm                F
E-||--------1----0---|--------1----0---|
B-||-----------------|-----------------|
G-||2----------------|0----------------|
D-||-----------------|-----------------|
A-||-----------------|-----------------|
E-||-----------------|-----------------|
                                 Se me olvidó.

    C                 G
E-||--------1----0---|-----------------|
B-||-----------------|1------0---------|
G-||0----------------|-----------------|
D-||-----------------|-----------------|
A-||-----------------|-----------------|
E-||-----------------|-----------------|

    Dm                F
E-||--------1----0---|-----------------|
B-||-----------------|1---0---1---3----|
G-||2----------------|-----------------|
D-||-----------------|-----------------|
A-||-----------------|-----------------|
E-||-----------------|-----------------|


             C
Y se me olvidó
                G
ponerle los candados al amor,
           Dm
Se me olvidó
                F
ponerme tus verdades de colchón,
           G
Se me olvidó
               Am                        F
restarle cada día una mentira a tu atención,
           G
Se me olvidó
                      C
y otra vez se me perdió.

Se me olvidó,
Se me olvidó,
Se me olvidó.




Letra subida por: Anónimo

Discos en los que aparece este acorde: Destino

El acorde de Se Me Olvidó de Antonio Orozco es una versión de la canción original realizada por colaboradores/usuarios de Coveralia.

¿Has encontrado algún error en esta página? Envíanos tu corrección del acorde