música
Buscador

Acorde de Santa Maria Da Feira - Devendra Banhart

Letra de Santa Maria Da Feira



D

e|-----------------|

b|-----7-----7-----|

g|-------7---------|

d|---------7-------|

a|---5-------------|

e|-----------------|



Em

e|-----------7-----|

b|-----8-----------|

g|-------9---------|

d|---------9-------|

a|---7-------------|

e|-----------------|



F#m

e|-------------9---|

b|-----10----------|

g|--------11-------|

d|-----------11----|

a|---9-------------|

e|-----------------|





------------------------------



D



D

Pensando

Em

Cada dia, cada hora

D

Pensando en ti



D

Caminando

Em

Mi cesta llena de moras

D

Son para ti



D

Temprano

Em

Por la tarde y por la noche

D

Sueño de ti









F#m

Ladi dadi dadi dadi dadi dadi

Em

Ladai didai didai

F#m

Ladi dadi dadi dadi dadi dadi

Em

Ladai didai didai



Bm A

e|-----------------------------|

b|---7-------------5-----5-----|

g|-----7------7------6---------|

d|-------9------9------7-------|

a|----------9------------------|

e|-----------------------------|

Oooh Ohhhh







D

Comiendo pera

Em

Santa Maria de la Feira

D

Que placer ir



D

La gente buena

Em

Solo goza nunca hay pena

D

Pa' que sufrir?



D

Jugando

Em

En el mar en la arena

D

Viviendo asi







F#m

Ladi dadi dadi dadi dadi dadi

Em

Ladai didai didai

https://www.coveralia.com/acordes/santa-maria-da-feira-devendra-banhart.php

F#m

Ladi dadi dadi dadi dadi dadi

Em

Ladai didai didai



Bm A

e|-----------------------------|

b|---7-------------5-----5-----|

g|-----7------7------6---------|

d|-------9------9------7-------|

a|----------9------------------|

e|-----------------------------|

Oooh Ohhhh





D

Ventana blanca

Em

Hay que venga la mañana

D

Hay que venga otra vez



D

Esperando

Em

Asi es como yo paso mi tiempo

D

Esperando a Inaniel



D

Y rezando

Em

Por su calor, por su aliento

D

Sobre mi piel









F#m

Te digo todo aquí va bien

Em

Conmigo de no dormir

F#m

Amigo te suplico te lo pido

Em

Que me ayudes a mí a mí



Bm A

e|-----------------------------|

b|---7-------------5-----5-----|

g|-----7------7------6---------|

d|-------9------9------7-------|

a|----------9------------------|

e|-----------------------------|

Oooh Ohhhh









D

Buscando

Em

Con mi ancla en la marea

D

Nadando en ti



D

Yo voy andando

Em

Oigame te estoy llamando

D

Te amo a ti



D

Por el valle

Em

Me encontré un rio escondido

D

Me ahogué allí



D

Y me recuerdo

Em

Hacía calor pero tenia frio

D

Me iba morir



D Em

Bianca, ay paloma angelina

D

Por fin te via



D Em

Ohhh, ohhh

D

Por fin te vi







Letra subida por: Anónimo

Discos en los que aparece este acorde: Cripple Crow

El acorde de Santa Maria Da Feira de Devendra Banhart es una versión de la canción original realizada por colaboradores/usuarios de Coveralia.

¿Has encontrado algún error en esta página? Envíanos tu corrección del acorde