música
Buscador

Acorde de Saca La Maleta - La Sonora Dinamita

Letra de Saca La Maleta

INTRO:

G C D7 G G C D7 G



G D7 G D7 G D7 G D7



G D7

Como a mi me gusta todo por delante

G D7

y nunca me gusta nada por detrás

G D7

Como a mi me gusta todo por delante

G D7

y nunca me gusta nada por detrás

G D7

Te tienes que poner los guantes

G

mira que vamos a pelear

D7

Te tienes que poner los guantes

G

mira que vamos a pelear

D7 G

No me vayas a endulzar con tus caricias

D7

Ni me vayas a decir: "mamita linda"

G D7

No me vayas a engañar con tus mentiras

G D7

Ni me vayas a creer una bobita

G D7

Mejor te vas, mejor te vas

G

mejor te vas Pa' la porra

D7

mejor te vas, mejor te vas

G

mejor te vas Pa' la porra

https://www.coveralia.com/acordes/saca-la-maleta-la-sonora-dinamita.php
D7

saca la maleta saca la maleta

G

saca la maleta y no vuelvas mas

D7

saca la maleta saca la maleta

G

saca la maleta y no vuelvas mas



PUENTE:

D7 G D7 G D7 G D7 G



G D7

E||------------------------|------------------------|

B||-------------0----------|----------0--1----0-----|

G||--0----0--2-------2--0--|--2----2-------------2--|

D||------------------------|------------------------|

A||------------------------|------------------------|

E||------------------------|------------------------|



G C D7

------------------------|-------0---------2-----||

--0----0--1--3----1--0--|--1---------3----------||

------------------------|----------------------*||

------------------------|----------------------*||

------------------------|-----------------------||

------------------------|-----------------------||



G

--3------------------||

---------------------||

-------0----0--------||

---------------------||

---------------------||

---------------------||

Letra subida por: Anónimo

Discos en los que aparece este acorde: Tropicalisima

El acorde de Saca La Maleta de La Sonora Dinamita es una versión de la canción original realizada por colaboradores/usuarios de Coveralia.

¿Has encontrado algún error en esta página? Envíanos tu corrección del acorde