música
Buscador

Acorde de Rutas Argentinas - Almendra

Letra de Rutas Argentinas



Tengo los dedos adheridos....

G|------------------

D|------------------ (*)

A|-----4-4--7-7--4-4

E|-5-5--------------

(Acorde triada mayor de A)

Se puede agregar alguna septima o alguna variación

de grados, pero yo les digo la base



Rutas argentinas... (Estribillo)

G|------------------------------------

D|------------------------------------

A|-5--7--5--7------4-4-5-5-6-6-7-5-6-7

E|-------------5-5--------------------



Chicas y muchachos nos esperan alla

G|

D|-----4-4--7-7--4-4------4-4--7-7--4-4

A|-5-5---------------5-5---------------

E|-------------------------------------



https://www.coveralia.com/acordes/rutas-argentinas-almendra.php

Llevamos buenas cosas llevamos buenas cosas

G|-------------------------------------

D|-------------------------------------

A|-----4-4--7-7--4-4------4-4--7-7--4-4

E|-5-5----------------5-5--------------



Chicas y muchachos nos esperan alla

G|-------------------------------------

D|-----4-4--7-7--4-4------4-4--7-7--4-4

A|-5-5---------------5-5---------------

E|-------------------------------------



Pero nadie nos quiere llevar

G|-------------

D|-------------

A|-7-7-7-7-----

E|-------------



Repite (*)

Repite estribillo

Letra subida por: Anónimo

El acorde de Rutas Argentinas de Almendra es una versión de la canción original realizada por colaboradores/usuarios de Coveralia.

¿Has encontrado algún error en esta página? Envíanos tu corrección del acorde