música
Buscador

Acorde de Rock Is Dead - Marilyn Manson

Letra de Rock Is Dead

[Intro]

F# A

e|-14~-| E|------------------------|

B|-----| B|------------------------|

G|-----| G|------------------------| X4

D|-----| D|-44-xx-44-xx-44-xx-44-7-|

A|-----| A|-44-xx-44-xx-44-xx-44-7-|

E|-----| E|-22-xx-22-xx-22-xx-22-5-|





[Verse] F# A

e|----------------------------|

B|----------------------------|

G|----------------------------| P.M. X4

D|-444-xx-444-xx-444-xx-444-7-|

A|-444-xx-444-xx-444-xx-444-5-|

E|-222-xx-222-xx-222-xx-222-5-|



All simple monkeys with alien babies, amphetamines for boys and crucifixes for ladies.



Sampled and soulless, worldwide and real webbed. You sell all the living for more safer dead.





[Pre-Chorus] A C D

e|--------------|

B|--------------|

G|----55-5-77-7-| X2

D|-7~-55-5-77-7-|

A|-7~-33-3-55-5-|

E|-5~-----------|



Anything to be loved, anything to be loved.





[Chorus] F# E F# E E D E D D C# D C# E

e|---------------------------------------------------------------------------|

B|---------------------------------------------------------------------------|

G|-11-x-999-11-x-999-9-x-777-9-x-777-7-x-666-7-x-666-6-666-6-666-9-999-9-999-|

D|-11-x-999-11-x-999-9-x-777-9-x-777-7-x-666-7-x-666-6-666-6-666-9-999-9-999-|

A|-9--x-707-9--x-707-7-x-505-7-x-505-5-x-404-5-x-404-4-444-4-444-7-777-7-777-|

E|---------------------------------------------------------------------------|



Rock! is deader than dead. Shock! it's all in your head.



Your sex and your dope is all that we're fed, so fuck all your protests and put them to bed.





[Pre-Verse] F# A E

e|----------|

B|----------|

G|----------|

D|-4~-7~-2~-|

A|-4~-7~-2~-|

E|-2~-5~-0~-|



God is in the T.V.



F# A

e|------------------------|

B|------------------------|

G|------------------------| X4

D|-44-xx-44-xx-44-xx-44-7-|

A|-44-xx-44-xx-44-xx-44-7-|

E|-22-xx-22-xx-22-xx-22-5-|



Rock! La-la la la-la la-da-da-dow. Rock! La-la la la-da-da-dow



Rock! La-la la la-la la-da-da-dow. Rock! La-la la la-da-da-dow



[Verse] F# A

e|----------------------------|

B|----------------------------|

G|----------------------------| P.M. X4

D|-444-xx-444-xx-444-xx-444-7-|

A|-444-xx-444-xx-444-xx-444-5-|

E|-222-xx-222-xx-222-xx-222-5-|



One thousand mothers are praying for it, we're so full of hope and so full of shit.



Build a new god to medicate and go ape. Sell us ersatz dressed up and real fake.





https://www.coveralia.com/acordes/rock-is-dead-marilyn-manson.php

[Pre-Chorus] A C D

e|--------------|

B|--------------|

G|----55-5-77-7-| X2

D|-7~-55-5-77-7-|

A|-7~-33-3-55-5-|

E|-5~-----------|



Anything to be loved, anything to be loved.





[Chorus] F# E F# E E D E D D C# D C# E

e|---------------------------------------------------------------------------|

B|---------------------------------------------------------------------------|

G|-11-x-999-11-x-999-9-x-777-9-x-777-7-x-666-7-x-666-6-666-6-666-9-999-9-999-|

D|-11-x-999-11-x-999-9-x-777-9-x-777-7-x-666-7-x-666-6-666-6-666-9-999-9-999-|

A|-9--x-707-9--x-707-7-x-505-7-x-505-5-x-404-5-x-404-4-444-4-444-7-777-7-777-|

E|---------------------------------------------------------------------------|



Rock! is deader than dead. Shock! it's all in your head.



Your sex and your dope is all that we're fed, so fuck all your protests and put them to bed.





[Pre-Verse] F# A E

e|----------|

B|----------|

G|----------|

D|-4~-7~-2~-|

A|-4~-7~-2~-|

E|-2~-5~-0~-|



God is in the T.V.



F# A

e|------------------------|

B|------------------------|

G|------------------------| P.M. X4

D|-44-xx-44-xx-44-xx-44-7-|

A|-44-xx-44-xx-44-xx-44-7-|

E|-22-xx-22-xx-22-xx-22-5-|



Rock! La-la la la-la la-da-da-dow. Rock! La-la la la-da-da-dow



Rock! La-la la la-la la-da-da-dow. Rock! La-la la la-da-da-dow





F# A

e|------------------------|

B|------------------------|

G|------------------------| X4

D|-44-xx-44-xx-44-xx-44-7-|

A|-44-xx-44-xx-44-xx-44-7-|

E|-22-xx-22-xx-22-xx-22-5-|



Rock! La-la la la-la la-da-da-dow. Rock! La-la la la-da-da-dow



Rock! La-la la la-la la-da-da-dow. Rock! La-la la la-da-da-dow





[Pre-Chorus] A C D

e|--------------|

B|--------------|

G|----55-5-77-7-| X2

D|-7~-55-5-77-7-|

A|-7~-33-3-55-5-|

E|-5~-----------|





[Chorus] F# E F# E E D E D D C# D C# E

e|---------------------------------------------------------------------------|

B|---------------------------------------------------------------------------|

G|-11-x-999-11-x-999-9-x-777-9-x-777-7-x-666-7-x-666-6-666-6-666-9-999-9-999-| X2

D|-11-x-999-11-x-999-9-x-777-9-x-777-7-x-666-7-x-666-6-666-6-666-9-999-9-999-|

A|-9--x-707-9--x-707-7-x-505-7-x-505-5-x-404-5-x-404-4-444-4-444-7-777-7-777-|

E|---------------------------------------------------------------------------|



Rock! (Rock!) is deader than dead. Shock! (Shock!) it's all in your head.



Your sex and your dope is all that we're fed, so fuck all your protests and put them to bed.

Letra subida por: Anónimo

El acorde de Rock Is Dead de Marilyn Manson es una versión de la canción original realizada por colaboradores/usuarios de Coveralia.

¿Has encontrado algún error en esta página? Envíanos tu corrección del acorde