música
Buscador

Acorde de Rios De Lagrimas - Los Fabulosos Cadillacs

Letra de Rios De Lagrimas

(trompeta transcrita para guitarra) 



Am Dm Am

E-------------------------------------------------------------------|

B-------------------------------3--5^3--5^3--5^3--5^3---6--5--------|

G--2--4^2--4^2--4^2--4^2--4--5--------------------------------5-----|

D----------------------------------------------------------------7--|

A-------------------------------------------------------------------|

E-------------------------------------------------------------------|



Am E Am

---------------------------------|

--5--3--------5--3---------------|

--------4--2--------4--5--4--2--o|

--------------------------------o|

---------------------------------|

---------------------------------|





Am

Ríos y ríos de lágrimas



Dm

forman ríos y ríos de amor



me dijo mientras me besaba la frente



E Am

y luego me dijo adios.



Am

Ríos de sueños que yo se muy bien



Dm

que nunca se harán realidad



Am

fluyendo en mis venas y mi soledad



E E7

conmigo para siempre estará.



G C

Si un segundo ha durado la vida



G Am

yo viví un millón de veces más



Dm Am

y no me arrepiento de haberte que querido



E Am

pero sí de no haberte matado mientras pude



G C

un segundo ha durado la vida



G Am

yo viví un millón de veces más



Dm Am

https://www.coveralia.com/acordes/rios-de-lagrimas-los-fabulosos-cadillacs.php

y no me arrepiento de haberte querido



E7

pero si . . .





(repite solo de trompeta)



(guitarra)



Am

--8--7--5--7--8--7--5-----5-----5--7--8--7--5--7--8--7--5--|

-----------------------8-----8-----------------------------|

-----------------------------------------------------------|

-----------------------------------------------------------|

-----------------------------------------------------------|

-----------------------------------------------------------|



Dm

----8--7--5--7--8--7--5--8--12--10--|--10--12--13--12--10----------|

------------------------------------|--10------------------12--10--|

------------------------------------|--10--------------------------|

------------------------------------|------------------------------|

------------------------------------|------------------------------|

------------------------------------|------------------------------|



E Am

--12-12-----|------------------------------------|

---------12-|--10--12--13--12--10----10--12--10--|

------------|---------------------12-------------|

------------|------------------------------------|

------------|------------------------------------|

------------|------------------------------------|







G C

Si un segundo ha durado la vida



G Am

yo viví un millón de veces más



Dm Am

y no me arrepiento de haberte que querido



E Am

pero sí de no haberte olvidado mientras pude



G C

Ahora el sol ha dorado mi cara



G Am

aún el sol brillará mucho más



Dm Am

tan solo me queda el recuerdo de tu alma



E

y tal vez . . .

Letra subida por: Anónimo

Discos en los que aparece este acorde: El Leon , 20 Grandes Exitos , Rock Latino , 20 Exitos Originales

El acorde de Rios De Lagrimas de Los Fabulosos Cadillacs es una versión de la canción original realizada por colaboradores/usuarios de Coveralia.

¿Has encontrado algún error en esta página? Envíanos tu corrección del acorde