música
Buscador

Acorde de Revolución Humana - El Otro Yo

Letra de Revolución Humana

INTRO



e|-2--2--3-----------------------------|>

B|-3---3--3---------3-----3-----3------|>

G|-2--------2--------0-----0-----0-----|>

D|-0----------0----0-----0-----0-------|> x2

A|----------------3-----2-----0--------|>

E|-------------------------------------|>





CON INTRO

G

Enseñame a vivirlo,este dia no lo entiendo



C G C D G

y no se vivr ,enseñaaaame

C G C D intro x2

y no se vivr ,enseñaaaame





CON INTRO(le agrega algunos sonidos mas)



equilibrio no te encuentro,el extremo es mi guerra



G C G C

poniendole pesas a mi balanza busco equilibrio

G C G C

sacandole pesas A MI balanza busco equilibrio (bis)





PUNTEO

e|------------------------------------------------------10h-|>

B|-8-10-8-12-10-8-10-8-8-10-12-10-8--8-10-8-12-10-8-8-10----|> x2

G|----------------------------------------------------------|>



https://www.coveralia.com/acordes/revolucion-humana-el-otro-yo.php



INTRO



fuera negativo,adentro positivo



en las mentes libertad



G C G C



G C G C

sacandole pesas a mi balanza busco equilibrio

G C G C

poniendole pesas a mi balanza busco equilibrio,ohoh

G C G C

poniendole pesas a mi balanza busco equilibrio





F G Em C

si cambia uno cambian los demas

G Em C G

para obtener verdadera libertad

F G Em C G

un deseo de elevacion

Em C G F

revolucion humana

G Em C G

revolucion humana

Em C G F

revolucion humana

G Em C G

revolucion humana







Letra subida por: Anónimo

Discos en los que aparece este acorde: Colmena

El acorde de Revolución Humana de El Otro Yo es una versión de la canción original realizada por colaboradores/usuarios de Coveralia.

¿Has encontrado algún error en esta página? Envíanos tu corrección del acorde