música
Buscador

Acorde de Remedio Pa'l Corazón (Feat. Jorge Villamizar) - Alberto Plaza

Letra de Remedio Pa'l Corazón (Feat. Jorge Villamizar)

Coro:
REm                 LA                     SOLm                REm
Deja De Llorar Mejor La Ri La Risa Es Cosa, Cosa Buena Pal Dolor
REm                 LA                     SOLm                REm
Nunca Pares De Soñar, Soñar Es Buen Reme Remedio Para El Corazón

SOLm             LA                 SOLm LA REm
Deja Las Penas Con Llave Guardadas En Un Cajón
SOLm             LA                 SOLm LA REm
Y Los Problemas Del Alma Tirados En Un Rincón
SOLm                 REm
Bota El Rencor A La Basura
SOLm                 LA                REm
Ponle Sabor Si No La Vida Se Pone Muy Dura


Coro:
REm                 LA                     SOLm                REm
Deja De Llorar Mejor La Ri La Risa Es Cosa, Cosa Buena Pal Dolor
REm                 LA                     SOLm                REm
Nunca Pares De Soñar, Soñar Es Buen Reme Remedio Para El Corazón


SOLm             LA                 SOLm LA REm
Deja Que El Viendo Se Lleve Los Malos Momentos
SOLm            LA        SOLm LA REm
Ponle A La Vida Color Y Sentimiento
SOLm             LA                 SOLm LA REm
Ciérrale La Puerta En La Cara A La Amargura
SOLm                 LA                REm
Ponle Sabor Si No La Vida Se Pone Muy Dura

El coro repite luego 3 veces


 Coro:
3. ------0222-032----0--------|------0222-032----0-----||
4. ---023--------3332-3---0---|---023--------3332-3--0-||
5. -55---------------------55-|-55-----------------55--||

A)
3. -----0----------------|-----0--------3--------||
4. -5545-355-356-7-5-30--|-5545--355-356--641----||
5. ----------------------|-----------------------||

3. ----------------------|-----------------------||
4. -5545-7867------------|-8878-78578578578------||
5. -----------8----------|-----------------------||

                      Coro
B)
3. -----0---------------|-----0------------------||
4. -5545--355-356-7-5-3-|-5545--355-787----------||
5. ---------------------|---------------8--------||


3. -------------------------------|------------------||
4. -556456456756------------------|-8878-78678678678-||
5. ----------------------7--------|------------------||

   No Esta La Cuerda 1,2 y 6 No Se Usan...


Letra subida por: Anónimo

El acorde de Remedio Pa'l Corazón (Feat. Jorge Villamizar) de Alberto Plaza es una versión de la canción original realizada por colaboradores/usuarios de Coveralia.

¿Has encontrado algún error en esta página? Envíanos tu corrección del acorde