música
Buscador

Acorde de Reino De Sueños - Tierra Santa

Letra de Reino De Sueños



intro:



e|--0~-2-0---0~---0-2-0~--2-0---0~---0-2----|

B|---------4----4-------------4----4-----2~-|

G|------------------------------------------|

D|------------------------------------------|

A|------------------------------------------|

E|------------------------------------------|



e|------0-2-0----------||--------0------------|

B|--2-4-------4-2-0----||----2-4---4-2--------|

G|------------------4--||--4-----------4-2-2--|

D|---------------------||---------------------|

A|---------------------||---------------------|

E|---------------------||---------------------|



e|---------------------||------------0----|

B|------2-4-2----------||------0-2-4---2--|

G|--2-4-------4-2-1-1--||--1-2------------|

D|---------------------||-----------------|

A|---------------------||-----------------|

E|---------------------||-----------------|



e|------0-2-0-------0--||------0-2-0----------|

B|--2-4-------4-2-0----||--2-4-------4-2-0----|

G|---------------------||------------------4--|

D|---------------------||---------------------|

A|---------------------||---------------------|

E|---------------------||---------------------|



e|---------------------||------------0----|

B|---------------------||------0-2-4---2~-|

G|----4-----2-----1----||--1-2------------|

D|---------------------||-----------------|

A|---------------------||-----------------|

E|---------------------||-----------------|





B-A-G#

------Más allá,

G#(C#) B

de fronteras y color

G#(C#) A

existe un mundo de verdad.

G#(C#)

Un lugar

B

donde no hay oscuridad

A F#

donde un sueño es realidad.

C#

No es de allí

B

el que no sabe soñar

C# A

el que no sabe pensar.

C#

No es lugar

B

de codicia y destrucción

A F#

no hay lugar para el dolor

E G#

para el odio y la ambición.





C#

Sí es allí

B A

donde tu quieres llegar

C#

piensa que

B A

está dentro en tu interior.

C#

Sí es allí

B A

donde quieres encontrar

F#

libertad

G#

el rostro de la verdad

G#

signos de razón

G#

dónde está la luz.





B A G#

Vagarás

A F# G#

por la senda del dolor.

B A G#

https://www.coveralia.com/acordes/reino-de-suenos-tierra-santa.php

Pensarás

A F# G#

que lejana está la luz.

B A G#

Sentirás

A F# G#

que has buscado en tu interior

B A G#

Pensarás

A F# G# B-A

el destino se cumplió





C#

Si al andar

B

no encontraste este lugar

C# A

que has buscado sin cesar.

C#

Lo hallarás

B

donde el tiempo se perdió

A F#

más allá de la razón.



C#

Y al final

B

el camino se estrechó

C# A

lleno de heridas llegarás.

C#

Pero tu

B

que has buscado en tu interior

A F#

más allá de la razón

E G#

donde el tiempo de perdió.





C#

Sí es allí

B A

donde tu quieres llegar

C#

piensa que

B A

está dentro en tu interior.

C#

Sí es allí

B A

donde quieres encontrar

F#

libertad

G#

el rostro de la verdad

G#

signos de razón

G#

dónde está la luz.



B A G#

Vagarás

A F# G#

por la senda del dolor.

B A G#

Pensarás

A F# G#

que lejana está la luz.

B A G#

Sentirás

A F# G#

que has buscado en tu interior

B A G#

Pensarás

A F# G# B-A

el destino se cumplió





C# B

--Quiero que

A G#-A

no pienses más que no

C# B A G#-A

-es posible alcanzar tus sueños.

C# B

--Busca en tí

A G#-A

quizás un día te encontrarás

C# B A G#-A

--con el reino de los sueños

Letra subida por: Anónimo

Discos en los que aparece este acorde: Medieval

El acorde de Reino De Sueños de Tierra Santa es una versión de la canción original realizada por colaboradores/usuarios de Coveralia.

¿Has encontrado algún error en esta página? Envíanos tu corrección del acorde