música
Buscador

Acorde de Reino Andalusi - Sergio Contreras

Letra de Reino Andalusi







Lam Mi Mi Lam

-------------0---------0---0----------------------------

-0-------------------------------------0---------0------

--------------------------------------------------------

--2---2-2-2---1---1--1-1----1---1-1-1---2---2-2--2------

---1-1---1-----0-0-----0-----0-0---0-----1-1-----1------

----0--0--------0--0---0------0--0--------0--0---0------





Lam Mi

Y que me gusta, a mi sentarme en la calle Betis



alli en sevilla, cruzando el rio, torre del oro

Lam

y asi sabe que Triana entera a mi me mira

ira, y pedi jamón, y unas gambitas

que sean de Huelva, si no las quitas

De onde va se, po de Huelva!

Osú que rico, el pan de pico

Pasa por delante de mi una shikilla que de guapa duelen los ojos

y que andares, que maravilla hija

andaluza de Córdoba...fijo!

Pasa por delante de mi un airesito, de brisa vieja, de brisa añeja

y como empjua ese levante.... ese Cai y su arte, no hay quien lo aguante!!





Lam

Y escucharas un lerelere (aqui)

Mi

Cuando te vas piensas en volve (aquí)

Mi

esto esta hecho solo pa ti

Lam

aqui nos tienes REINO ANDALUSÍ



(bis)





--------------------------------------------------------------------

--------------------------------------------------------------------

--------------------------------------------------------------------

--------------------------------------------------------------------

--------------------------------------------------------------------

https://www.coveralia.com/acordes/reino-andalusi-sergio-contreras.php
--10-10-10-10-10-10-10-810-11--8-8-8-8-6-5---8-8-8-8-8-8-8-6-8-5--10-10-10-10-10-8-6





x2





Y que razón tenia Lorca, andaluz de pro

y su amor al verde y al frio blanco

Sierra Nevá..verde que te quiero verde Graná!



Ira, amos a bañarnos, que pica el sol

y en estas playas da gusto hacerlo

Málaga lo tiene to, tienes que verlo

historia, costumbres..Costa del Sol!!





Vamos a quererla que esta ya cansaita de escuchar criticar



mientras te vas comiendo una aceituna

enterate Jaén...como tú ninguna!



Vamos a quererla que esta ya cansaita de escuchar criticar



con ella se me va la vida

y cuando la encuentro está de copas por Almería!



Y escucharas un lerelere (aqui)

Cuando te vas piensas en volve (aquí)

esto esta hecho solo pa ti

aqui nos tienes REINO ANDALUSÍ



x4



se repite riff anterior





Coros (lerelereee)



El solesito, la güena ente

unas gambitas, unos chopitos

Las soleá, las sevillanas

unas rumbitas, las bulerias

los fandanguitos, el solesito



Letra subida por: Anónimo

Discos en los que aparece este acorde: De Luz Y De Sal

El acorde de Reino Andalusi de Sergio Contreras es una versión de la canción original realizada por colaboradores/usuarios de Coveralia.

¿Has encontrado algún error en esta página? Envíanos tu corrección del acorde