música
Buscador

Acorde de Regrésame A Júpiter - Fobia

Letra de Regrésame A Júpiter

(Intro)



E-----2--------2----

B---------------2--2

G---4-----4--3------ x8 G5

D--4-----5--4----4--

A-2-----5--4--------



F#5 A#5 B5 G5

Desde pequeno querian inculcarme

F#5 A#5 B5 G5

Que no ay que darle tu confiansa aun angel

F#5 A#5 B5

Nunca dijieron que podrias apareserte



(coro)



G5 Em5 B5

G----------------------------------------4-----4-------4-

D---5-----5-----5----2------2-------2-------4-----4------

A-----5-----5----------2-------2-------2------2------2---

E-3-----3-----3----O------O-------O----------------------

Tu... Regresame a Jupiter



G5 Em5 B5

G----------------------------------------4------4------4-

D---5-----5-----5----2------2-------2-------4-----4------

A-----5-----5----------2------2--------2------2-----2---

E-3-----3-----3---O-------O-------O----------------------

Regresame ah...



F#5 A#5 B5 G5

Por que hace meses que no tengo a nadie

F#5 A#5 B5 G5

Y en este pueblo se me acaba el aire

F#5 A#5 B5 C5

https://www.coveralia.com/acordes/regresame-a-jupiter-fobia.php
Mezclando quimicos espero que aparezcas



Repite Coro x2



E-------2-------

B-------------4-

G-----4-----5---

D---4-----5-----

A-2------------- G5



F#5 A#5 B5 G5

E-232-232-232-232-232-232-232-232-232-232-

Por que hace tiempo que no entiendo nada

F#5 A#5 B5 G5

E-232-232-232-232-232-232-232-232-

Y la salida siempre esta cerrada

F#5 A#5 B5 C5

E-232-232-232-232-232-232-232-232-232-232-

Mezclando quimicos espero que aparezcas



Repite coro x1



F#5 A#5 B5 G5

E-232-232-232-232-232-232-232-232-232-232-232- Repite x2



F#5 A#5 B5 C5 G5

E-676-676-676-676-676-676-676-676-676-676-676-

Em5 B5 G5 Em5 C5

E-6---7--1O/12---13/12--/7----6/7---1O/12---13/12/7--











Letra subida por: Anónimo

Discos en los que aparece este acorde: Leche , Fobia On Ice , Pastel (En Vivo) , Wow 87-04

El acorde de Regrésame A Júpiter de Fobia es una versión de la canción original realizada por colaboradores/usuarios de Coveralia.

¿Has encontrado algún error en esta página? Envíanos tu corrección del acorde