música
Buscador

Acorde de Reforget - Lauv

CHORDS(relative to the capo):



Em C Am D Em* G F C5 G5 D5 C* D* Em** G*

e|-0---0---0---2---3---3---1-|-----------|-0----2----3----7-|

B|-0---1---1---3---0---0---1-|-----------|-1----3----5----8-|

G|-0---0---2---2---0---0---2-|-5-------7-|-0----2----4----7-|

D|-2---2---2---0---2---0---3-|-5---5---7-|-x----x----x----x-|

A|-2---3---0-------2---x---3-|-3---5---5-|------------------|

E|-0---------------0---3---1-|-----3-----|------------------|





CAPO 1st fret





Em C

Didn't wanna be a ghost

Am D Em* C /fill 1/

But you pushed me over and over

Em C

Never thought I'd have a vice

Am D Em* C /fill 1/

Other than you, over and over





G C

Left you in the sky with the fire below

Am

Thought I had it right but I'm still





[ C D |

Lost in the light |

Em* G |

and I don't know what night it is |

C D Em* | between squared

You're somewhere else I'm drinking not to guess | brackets you

G C | can play palm

Blurry bodies but you're on my mind | muted chords

D Em* G |

We let it go now I'm full of rum and regret |

C D Em* |

I go out just so I can reforget |

G ] C D Em*

I go out just so I can reforget

G C D Em*

I go out just so I can reforget

G

I go out, go out





x C

I never thought a sunrise

Am D Em* C /fill 1/

Could burn more than a midnight without you

Em C

Already paying for tonight

Am x Am x /fill 2/

Head spins like carousel, over and over





C5

Left you in the sky with the fire below

G5 D5

Thought I had it right but I'm still





C* D* |

Lost in the light |

Em** G* | play these to

and I don't know what night it is | get original

C* D* Em** | sound, or you

You're somewhere else I'm drinking not to guess | can also play

G* C* | regular chords,

Blurry bodies but you're on my mind | depending on

D* Em** G* | player's

We let it go now I'm full of rum and regret | skill

https://www.coveralia.com/acordes/reforget-lauv.php

C* D* Em** |

I go out just so I can reforget |

x C D Em*

I go out just so I can reforget

G C D Em*

I go out just so I can reforget

G C D Em*

I go out just so I can reforget

G C D Em*

I go out just so I can reforget

G

I go out, go out





G C Em

Two more footsteps on the wood floor



But it ain't you

G C Em

I'm faded so I bring someone home

F

Over and over, I do this and I'm still





(C*) (D*) |

Lost in the light | instead of playing

(Em**) (G*) | chords you can

and I don't know what night it is | play /fill 3/

(C*) (D*) (Em**) |

You're somewhere else I'm drinking not to guess |

G* C*

Blurry bodies but you're on my mind

D* Em** G*

We let it go now I'm full of rum and regret

C* D* Em**

I go out just so I can reforget

x C D Em*

I go out just so I can reforget

G C D Em*

I go out just so I can reforget

G C D Em*

I go out just so I can reforget

G C D Em*

I go out just so I can reforget

G

I go out, go out





[ C D Em* G ]x4





/FILL 1/

e|-5h7---------5h7-------|

B|-----8---5-------8---5-|

G|-----------------------|

D|-----------------------|

A|-----------------------|

E|-----------------------|



/FILL 2/

e|---------------------------|----|---------------------------|

B|-5------/7------/8------\3-|----|---------------------------|

G|-4------/6------/7------\2-|-or-|-9------/11-----/12-----\7-|

D|-2------/4------/5------\0-|----|-9------/11-----/12-----\7-|

A|---------------------------|----|-7------/9------/10-----\5-|

E|---------------------------|----|---------------------------|



/FILL 3/ - p.m.

e|-----------------------------------------------------------------|

B|-----------------------------------------------------------------|

G|---------------------------------0---0---0---0-4---4-4---4---4-4-| x2

D|-2---2---2---2-4---4-4---4---4-4---------------------------------|

A|-----------------------------------------------------------------|

E|-----------------------------------------------------------------|

Letra subida por: Anónimo

Discos en los que aparece este acorde: I Met You When I Was 18. (The Playlist)

El acorde de Reforget de Lauv es una versión de la canción original realizada por colaboradores/usuarios de Coveralia.

¿Has encontrado algún error en esta página? Envíanos tu corrección del acorde