música
Buscador

Acorde de Rebirth - Angra

Letra de Rebirth

   Am               Am7/G      Em     F          G      Am

e|--------0-----------------------------------------------------0--------| R

B|------1---3--------------1-0--------------------------------1-----1----|\ E

G|----2------------2-----0----------0--------2-0------------2-----2---2--| P

D|---------------0-----2----------2--------3----------5---2--------------| E

A|--0------------------------------------3----------5---0----------------|/ T

E|-------------2-----3----------0------1----------3----------------------| E



Dm B C Am

e|-------1-----0----------0------1---0-------------------------0----|

B|-----3-----------3-----------------------3----1--1-----1-------1--|

G|---2-----2-----2---3------3------3---0----0----0---2-----2--------|

D|-0---------0---------0------0------------------------2-----2------|

A|---------------------------------------3----3---------------------|

E|------------------------------------------------------------------|



Dm B C G/B

e|-1-----------0---------0-----1---0------------------------|

B|-------3---------3-------3-----3-------3-----1---0-----0--|

G|---2-----2-----0---3-------3-------0-----0-----0---0------| fim da primeira

D|-----0-----0---------0-------------------------------0----| parte

A|-------------------------------------3-----3--------------|

E|----------------------------------------------------------|



2ª parte (toque duas vezes):





(início da voz)



A7/9 (?) Dm7

e|-------3-0---3------3-0---3------------5-----------------5---------|

B|-----1-----1--1----1----1---1-------6-------6----------6------6----|

G|---4--------------4---------------5-------5---5------5------5---5--|

D|--------------------------------7------------------7---------------|

A|-0--------------0-------------5------------------------------------|

E|---------------------------------------8---------7-------5---------|





G/9(?)

e|---------3----------------3-----------------0----------------0-------|

B|-------0---0---0--------0---0---0---------3------3---------3-----3---|

G|-----2-------2--------2-------2---------0------0---0-----1-----1---1-|

D|---0----------------0-----------------2----------------2-------------|

A|------------------------------------3-------2----------------2-------|

E|-3----------------3----------------------------------4---------------|





e|-------3-0---3---------3-0----3-----------0------------0-------------1-0-|

B|-----1-----1---1-----1------1---1-------7------7------7-----7------1-----|

G|---4----------------4-----------------5------5---5---5----5---5---2------|

D|------------------------------------7---------------7--------------------|

A|-0----------------0---------------5----------------5---------------------|

E|------------------------------------------8------------5--------1--------|





e|---1---------1-0----1-----------0-----------------0---------------0-------|

B|-1---1-----1------1---1-----1-0---1---1------(10)---1---1----(10)---1---1-|

G|---------2----------------2---------4------2----------4-----2---------4---|

D|--------------------------------------------------------------------------|

A|------------------------0---------------0-----------------0---------------|

E|-------1-------3----------------------------------------------------------|



(repete segunda parte)



e|--------------------------------------------------------------------| R

B|-----1---1---0-------3---3---1-------1---1---0-------1---1---2------| E

G|---2---2---2---2---2---2---2---2---2---2---2---2---2---2---2---2----| P

D|--------------------------------------------------------------------| E

A|-0--------------0----------------0---------------0----------------0-| T

E|--------------------------------------------------------------------| E



(fim da introdução)





(ver introdução "início da voz")

Am Dm

Cooling breeze from a summer day

G C G/B

Hearing echoes from your heart

Am D D4

Learning how to recompose the words

https://www.coveralia.com/acordes/rebirth-angra.php
F Am

Let time just fly



Joyfull sea-gulls roaming on the shore

Not a single note will sound

Raise my head after I dry my face

Let time just fly

Am Dm Am

Recalling, retreating

Dm Am

Returning, retreaving

Dm Am

A small talk your missing



(FIM DA INTRODUÇÃO)

Dm F G

More clever but older now



(início instrumental)



Am F

A leader, a learner

A E

A lawful beginer

Am A7

A lodger of lunacy

D G

So lucid in a jungle

C E

A helper, a sinner

F G A

A scarecroow's agonyzing smile

F F#

Oh! Minutes go round and round

C#

Inside my head

D D#

Oh! My chest will now explode

B

Falling into pieces 2X

E A (C# B) E F E F

Rain breaks on the ground-blood!





C# B C# C# B C# E F E F

One minute forever



C# B C# C# B C# E F E F

A sinner regreting



A G F G A G

My vulgar misery ends



F G A G

Ride the winds of a brand new day

F G A G

High where mountain's stand

F E D

Found my hope and pride again

2X

C D E (A G/F# G E F G A)

Rebirth of a man (I N T R O D U Ç Ã O)



3X

BASE do SOLO: 1ª parte: (B G F# E G A D B) B G F# E G F# G



2X

2ª parte: (A G/F# G E F G A)



3ª parte: D C F E D C G A





G F G A G

(And I) ride the winds of a brand new day

F G A G

High where mountain's stand

F E D

Found my hope and pride again

C D E

Rebirth of a man (INTRODUÇÃO) Time to fly...

Letra subida por: Anónimo

Discos en los que aparece este acorde: Rebirth , Rebirth World Tour , Angels Cry (20th Anniversary Tour)

El acorde de Rebirth de Angra es una versión de la canción original realizada por colaboradores/usuarios de Coveralia.

¿Has encontrado algún error en esta página? Envíanos tu corrección del acorde