música
Buscador

Acorde de Ready For You - Michael Bolton

Letra de Ready For You



Verses

F#m add9 | Bsus2 | F#m/A | Abm |



Chorus

A | E | F#m | D - F/D



I'd recommend you play them using a capo on the 4th fret.

Chords would look like this:



F#madd9 Bsus2 F#m/A Abm

e |---5-------7-------5-------4-----|

B |---7-------7-------7-------4-----|

G |---6-------6-------6-------4-----|

https://www.coveralia.com/acordes/ready-for-you-michael-bolton.php

D |---6-------4-------7-------6-----|

A |---4-----------------------6-----|

E |---------------------------4-----|



A E F#m D F/D

e |--5----7-----5-----5------5------|

B |--5----9-----7-----7------6------|

G |--6----9-----6-----7------5------|

D |--7----9-----4-----7------4------|

A |--7----7-----------5-------------|

E |--5------------------------------|





Letra subida por: Anónimo

Discos en los que aparece este acorde: One World One Love

El acorde de Ready For You de Michael Bolton es una versión de la canción original realizada por colaboradores/usuarios de Coveralia.

¿Has encontrado algún error en esta página? Envíanos tu corrección del acorde