música
Buscador

Acorde de Raiz - Pedro Guerra

Letra de Raiz

Riff I

------------------------------------------------------

------------------------------------------------------

--2/3/2-0-2---0-------------2/3/2-0-2---0-------------

------------3------0------------------3------0--------

------------------------------------------------------

---------------------3-3-----------------------3-3----



Acordes

Gm Gm7 D7/9# Bb D7 Cm7

--3------------------1-----2-----3----

--3-----3------6-----3-----1-----4----

--3-----3------5-----3-----2-----3----

--5-----3------4-----3-----0-----5----

--5------------5-----1-----------3----

--3-----3----------------------------



Gm

Raíz que debo a mis viejos



A mis hijos y a los besos



Que me guardo y que no di.



Gm

Raíz que busco y no encuentro



Que vive oculta en los versos



Que no escribo y que perdí.





D7/9#

Raíz de todos nosotros



Raíz que aguarda en los ojos

Gm

Que hacen guardia para ver.



Riff I



Gm

Raíz abierta a la vida



Raíz solera y guarida

D7/9# Gm

Raíz que está por hacer.





Bb D7

Sin esa raíz, ¿Qué será?

Gm

Y eh, y eh, y eh

Bb D7

Sin esa raíz, ¿Qué será?

Gm7

Y eh, y eh, y eh

https://www.coveralia.com/acordes/raiz-pedro-guerra.php







Riff II



Gm7 Cm7 D7 Gm7

---------------------------------------/-------------/------/---------------------

-----3--1---------------3--1-----------/---4-3/4-1---/-3-1--/-----3--1------------

-----------2-3----------------2-3------/-----------3-/------/-----------2-3-------

--3------------------3-----------------/-------------/------/--3------------------

---------------------------------------/-------------/------/---------------------

----------------3-3----------------3-3-/-------------/------/----------------3-3--



Gm

Raíz dormida en la tierra



Raíz que enreda mis piernas



Y me toca el corazón



Gm

Raíz que gana mis guerras



LA guerra contra LA guerra



Y el estado del dolor



D7/9#

Raíz de toda la gente



Raíz que esquiva la muerte



Que me enseña dónde ir



Gm

Raíz que roza lo incierto



Raíz que abrazo y me invento

D7/9# Gm

Para así sobrevivir.





Bb D7

Sin esa raíz ¿Qué será?

Gm

Y eh, y eh, y eh.

Bb D7

Sin esa raíz ¿Qué será?

Gm

Y eh, y eh, y eh.





Riff II (Siguiéndolo con la voz)







Letra subida por: Anónimo

Discos en los que aparece este acorde: Raiz , , Vidas En Vivo , 30 Años

El acorde de Raiz de Pedro Guerra es una versión de la canción original realizada por colaboradores/usuarios de Coveralia.

¿Has encontrado algún error en esta página? Envíanos tu corrección del acorde