música
Buscador

Acorde de Radiation - Gavin Degraw

Letra de Radiation



chords used : Bm or Bm7 A G D F#



e|---2-----2------0--------3--------2------2--------------------------------|

B|---3-----3------2--------3--------3------2--------------------------------|

G|---4-----2------2--------0--------2------3--------------------------------|

D|---4-----4------2--------0--------0------4--------------------------------|

A|---2-----2------0--------2---------------4--------------------------------|

E|-------------------------3---------------2--------------------------------|



Intro melody na na nas



chords over this part (or under) Bm A G F#



e|--------------------------------------------------------------------------|

B|--------------------------------------------------------------------------|

G|----------4--4-----4--7--4---4--------------------------------------------|

D|---4--7---------7---------------7---5--5---4--5--7---4--------------------|

A|--------------------------------------------------------------------------|

E|--------------------------------------------------------------------------|



Na na na na na na na na, na na na na na na na na

Hey



Bm

I'll lay it down

One time through

A

Gather round

G D D A (Or A D not sure about inversion)

Though this is a chore



Bm

So rich realize

A

I prefer poor advice

G D

And showed her the door



G D A

This is your goodbye in case opportunity

G D A

Thought you were burning me down, but I'm finally free



(Chorus)

G A Bm

If you miss me, don't

D A G A Bm

If I never wanna see you again, I won't

D A G A Bm

If you get an invitation, I'm probably drunk

D A G

You're just as hot as radiation

F#

https://www.coveralia.com/acordes/radiation-gavin-degraw.php
But I'm in this situation



N/C

Oh the sun came up

Tell me, where'd I park?

We did it again

We had some fun, did some things, we got drunk

But I want it to end



Cause I only give in when I get the need

I'm only coming around cause I get to leave



(Chorus)

If you miss me, don't

If I never wanna see you again, I won't

If you get an invitation, I'm probably drunk

You're just as hot as radiation

But I'm in this situation



G D

Can't read, I can't see

A Bm

Thinking 'bout the mess that you're in

Some things I couldn't see

What about the rest of you?

Well you're under my skin

But I can't let you in

G

Though you don't see scars

F#

That's exactly what they are baby



Na na na na na na na na, na na na na na na na na

Baby baby, you're never gonna hurt me



(Chorus)

If you miss me, don't

If I never wanna see you again, I won't

If you get an invitation, I'm probably drunk

You're just as hot as radiation

But I'm in this situation



If you miss me, don't

If I never wanna see you again, I won't

If you get an invitation, I'm probably drunk

You're just as hot as radiation

But I'm in this situation

Yes I am, I gotta get out

If you miss me, if you miss me, if you miss me



Na na na na na na na na, na na na na na na na na...



Letra subida por: Anónimo

Discos en los que aparece este acorde: Sweeter

El acorde de Radiation de Gavin Degraw es una versión de la canción original realizada por colaboradores/usuarios de Coveralia.

¿Has encontrado algún error en esta página? Envíanos tu corrección del acorde