música
Buscador

Acorde de Quisiera - Colchon



Intro 0:00 - 0:15

Guitarra 1

E B C#m A

|------------------------------------------------------------------|

|------------------------------------------------------------------|

|---9-----9-----9---9-----9-----9---9-----9-----9---9-----9-----9--|

|-----9-----9---------9-----9---------9-----9---------9-----9------|

|-7-----7-----7---0-----0-----0------------------------------------|

|---------------------------------9-----9-----9---7-----7-----7----|



E B C#m A

|------------------------------------------------------|

|------------------------------------------------------|

|---9-----9-----9---9-----9-----9---9-----9------------|

|-----9-----9---------9-----9---------9-----9----------|

|-7-----7-----7---0-----0-----0------------------------|

|---------------------------------9-----9-----9---7----|



Intro 2 0:16

Guitarra 1

E B C#m A

|------------------------------------------------------------------| x2

|------------------------------------------------------------------|

|---9-----9-----9---9-----9-----9---9-----9-----9---9-----9--------|

|-----9-----9---------9-----9---------9-----9---------9-----9------|

|-7-----7-----7---0-----0-----0------------------------------------|

|---------------------------------9-----9-----9---7-----7-----7----|



Guitarra 2

E B C#m A

|------------------------------------------------------------------| x2

|---5-----5-----5---5-----5-----5---5-----5-----5---5-----5--------|

|-----4-----4---------4-----4---------4-----4---------4-----4------|

|-2-----2-----2----------------------------------------------------|

|---------------------------------4-----4-----4---2-----2-----2----|

|-----------------5-----5-----5------------------------------------|



Verso



Guitarra 1

E B C#m A

Es difícil olvidar los errores del ayer

E B C#m A

un error que ya se fue puede hacer que tu quieras volver.



Guitarra 2

E|---------------------------------------------|

B|---------------------------------------------|

G|-----------44444444-66666666/77/66/77/66/----|

D|--22222222-44444444-66666666/77/66/77/66/----|

A|--22222222-22222222-44444444/55/44/55/44/----|

E|--00000000-----------------------------------|





Guitarra 1

E B C#m A

|------------------------------------------------------------------| x2

|------------------------------------------------------------------|

|---9-----9-----9---9-----9-----9---9-----9-----9---9-----9--------|

|-----9-----9---------9-----9---------9-----9---------9-----9------|

|-7-----7-----7---0-----0-----0------------------------------------|

|---------------------------------9-----9-----9---7-----7-----7----|



Guitarra 2

E B C#m A

|------------------------------------------------------------------| x2

|---5-----5-----5---5-----5-----5---5-----5-----5---5-----5--------|

|-----4-----4---------4-----4---------4-----4---------4-----4------|

|-2-----2-----2----------------------------------------------------|

|---------------------------------4-----4-----4---2-----2-----2----|

|-----------------5-----5-----5------------------------------------|



Verso:

Guitara 1

E B C#m A

quisiera estar juntos otra vez

E B C#m A

quisiera olvidar el pasado que me atormenta esta vez.



Guitarra 2

E|---------------------------------------------|

B|---------------------------------------------|

G|-----------44444444-66666666/77/66/77/66/----|

https://www.coveralia.com/acordes/quisiera-colchon.php

D|--22222222-44444444-66666666/77/66/77/66/----|

A|--22222222-22222222-44444444/55/44/55/44/----|

E|--00000000-----------------------------------|





coro

E B C#m A

no te extraño quisiera poder el tiempo

E B C#m A

cambiar haaaaaaaaa jaaaa poder el tiempo

E B C#m A

cambiar.







Guitarra 1

E B C#m A

|------------------------------------------------------------------| x2

|------------------------------------------------------------------|

|---9-----9-----9---9-----9-----9---9-----9-----9---9-----9--------|

|-----9-----9---------9-----9---------9-----9---------9-----9------|

|-7-----7-----7---0-----0-----0------------------------------------|

|---------------------------------9-----9-----9---7-----7-----7----|



Guitarra 2

E B C#m A

|------------------------------------------------------------------| x2

|---5-----5-----5---5-----5-----5---5-----5-----5---5-----5--------|

|-----4-----4---------4-----4---------4-----4---------4-----4------|

|-2-----2-----2----------------------------------------------------|

|---------------------------------4-----4-----4---2-----2-----2----|

|-----------------5-----5-----5------------------------------------|



Verso



Guitarra 1

E B C#m A

sigo pensando que tu aun te acuerdas de mi

E B C#m A

pero no lo se tal vez no sea así.



Guitarra 2

E|---------------------------------------------|

B|---------------------------------------------|

G|-----------44444444-66666666/77/66/77/66/----|

D|--22222222-44444444-66666666/77/66/77/66/----|

A|--22222222-22222222-44444444/55/44/55/44/----|

E|--00000000-----------------------------------|





Solo1





E B C#m A

no te extraño quisiera poder el tiempo

E B C#m A

cambiar haaaaaaaaa jaaaa poder el tiempo

E B C#m A

cambiar.



continua Coro...



Guitarra 1

E B C#m A

|------------------------------------------------------------------| x2

|------------------------------------------------------------------|

|---9-----9-----9---9-----9-----9---9-----9-----9---9-----9--------|

|-----9-----9---------9-----9---------9-----9---------9-----9------|

|-7-----7-----7---0-----0-----0------------------------------------|

|---------------------------------9-----9-----9---7-----7-----7----|



Guitarra 2

E B C#m A

|------------------------------------------------------------------| x2

|---5-----5-----5---5-----5-----5---5-----5-----5---5-----5--------|

|-----4-----4---------4-----4---------4-----4---------4-----4------|

|-2-----2-----2----------------------------------------------------|

|---------------------------------4-----4-----4---2-----2-----2----|

|-----------------5-----5-----5------------------------------------|





------------------------PM--------------------------

E B C#m A

Letra subida por: Anónimo

Discos en los que aparece este acorde: Todo Lo Que No Puedes Ver

El acorde de Quisiera de Colchon es una versión de la canción original realizada por colaboradores/usuarios de Coveralia.

¿Has encontrado algún error en esta página? Envíanos tu corrección del acorde