música
Buscador

Acorde de Quiero Rock - Gigatron


INTRO

(x3)
   A                 F          G
e-----------------------------------------
B-----------------------------------------
G--4h5p4------4h5p4-5---4h5p4-----4h5p4---
D--------5-5h7----------------5-5h7-----5-
A-----------------------------------------
E-----------------------------------------

   A                 F          G          A
e---------------------------------------------
B---------------------------------------------
G--4h5p4------4h5p4-5---4h5p4-----4h5p4-------
D--------5-5h7----------------5-5h7-----5-5h7-
A---------------------------------------------
E---------------------------------------------

A
(Quiero agradecer...)

Punteillo (x2)
   A        F         G        E
e----------------------------------------
B--6-5-------6-5-------6-5-----------6---
G------7---------7-5-------7-4--4/5-7----
D--------7-----------------------------7-
A----------------------------------------
E----------------------------------------

A                   F                G
Quiero rascar mi guitarra como un trueno
A                  F            G
Rivalizar con las letras de Rosendo
A                  F                 G
Voy a ligar con tu novia a cualquier precio
E                   G
Se lo he pedido a Satán

A            F
Quiero rock, quiero solos
G                E              G       A
Riffs potentes y bombos que me hagan vibrar
A             F           G
Cera, tralla, caña, leña, bronca, ruido
E              G           A
quiero Espiz Metal sin piedad

Punteillo (x2)

Antes del solo hace una movida más o menos así en Palm Mute
(x4)

G--2------------------------------------------
D--2------------------------------------------
A--0-0-0-0-0-5-0-0-0-0-4-0-0-0-0-2-3-2-3-2-0--
E---------------------------------------------

A               F                      G
Quiero triunfar con mi grupo de Thrash Metal
A               F                  G
Voy a arrasar en las listas de Vallekas
A               F                  G
Dejare de currar, yo voy a pillar billetes
E                 G
Pa vivir con dignidad


A          F
Jebi Rock, Metal Jamer
G                     E        G     A
El Querrang, sus portadas me dedicarán
A            F
El del medio de los Venom
G                E         G     A
Mariscal y el pirata me bendecirán


Quiero rock.....


Letra subida por: Anónimo

Discos en los que aparece este acorde: Mar De Cuernos (The Platinum Years)

El acorde de Quiero Rock de Gigatron es una versión de la canción original realizada por colaboradores/usuarios de Coveralia.

¿Has encontrado algún error en esta página? Envíanos tu corrección del acorde