música
Buscador

Acorde de Queen Of The Deep - Ufo

Letra de Queen Of The Deep

Intro: 

Eb

Ab

Verse:



Eb Ab

Heaven knows why I'm left here in this place

B Eb

With the sun up in my eyes

Ebm Abm

Symbols of the morning comin' on

Db Eb

With a love that's got too strong to hold

Abm B

If I'd been so much wiser then

Eb

I would have known which path to choose

Ab Db Eb

Heaven help the lucky one

Ab Eb

Heaven help you

Interlude:

A Ab E



Riff:

E|----------------------------------------------------------|

B|----------------------------------------------------------|

G|----------------------------------------------------------|

D|-----------------------13/8-------------------------------|

A|-----------1-3--------11/6------------1-3-------6\8-------|

E|1----3-4------1--------------1----3-4-----1-----4\6-------|



Fm Eb

Heard the news come on the radio

Fm Eb

About the laughing disaster plane

Fm Eb

I'd already heard before

Ab Db Eb

Baby, two years ago



Riff:

E|----------------------------------------------------------|

B|----------------------------------------------------------|

G|----------------------------------------------------------|

D|-----------------------13/8-------------------------------|

https://www.coveralia.com/acordes/queen-of-the-deep-ufo.php

A|-----------1-3--------11/6------------1-3-------6\8-------|

E|1----3-4------1--------------1----3-4-----1-----4\6-------|



Fm Eb

Soyuz 2 had just returned

Fm Eb

Now it seemed just like a dream

Fm Eb

'Cos I'd already seen it

Ab Db Eb

On my TV screen



Riff:

E|----------------------------------------------------------|

B|----------------------------------------------------------|

G|----------------------------------------------------------|

D|-----------------------13/8-------------------------------|

A|-----------1-3--------11/6------------1-3-------6\8-------|

E|1----3-4------1--------------1----3-4-----1-----4\6-------|



Solo Chords:

Fm C

Fm C

Fm Db

Fm Cm

F C Cm

F Fm C Cm

F Fm C Cm

F Fm F Fm C

F Fm Cm

Bb F Fm

C Cm

Fm



Fm Eb

Now I can see all these conflicts goin' on

Fm Eb

But you think, you can show some faith

Fm Eb

Just likto you a stand in ovation

Ab Db Eb

When I'm dead and gone



I've did my best

Letra subida por: Anónimo

Discos en los que aparece este acorde: Phenomenon

El acorde de Queen Of The Deep de Ufo es una versión de la canción original realizada por colaboradores/usuarios de Coveralia.

¿Has encontrado algún error en esta página? Envíanos tu corrección del acorde