música
Buscador

Acorde de Quedate - Christian Meier

Letra de Quedate

INTRO:  F - Bb

           F
1. Cae la tarde un frio color
                Bb
   escucho mi nombre en el corredor,
                   F
   y ya no es tu risa la que me recuerda
                      Bb
   que un libro se acaba aunque sea el mejor.

             Dm               Bb
   Frente a mi yo se que no ves
             Dm                 Bb
   que la escencia nos hizo crecer
                  Dm
   y es que aunque me disparen
        F                   C
   que no me comparen con fotos de ayer.


   CORO
                  F                 C
   Quedate esta noche conmigo mi amor
                  Dm               Am7
   y cierra los ojos entiende que yo
                    Bb
   enciendo mis sueños
                F                 C
   cuando a mi lado siento tu calor

                F                 C
   Y abrazame fuerte por ultima vez
                    Dm              Am7
   que no nos importe que pase despues
                    Bb
   si tu tambien sabes
                   F                 C                    F - Bb...(intro)
   que cuando amanezca yo ya no estare, mmm... ya no estare.


Solo Electric.

e|---------------------------------------------------------------------------------->
B|--13--------------------------------------13-------------------------------------->
G|------12(14)~12(14)~12(14)~12(14)~12(14)~~----12(14)~~~~~~12\10--12p10~~~~~~~~~~~~>
D|---------------------------------------------------------------------------------->

e>------------------------------------------------------------------------------13/15~~~~~~13~~~~~~~~~~>
B>----------------------------------------13~13~~~~~~~~13/15\13~~~h13/15\13~~~------------------------->
G>-------10--12--12/14\12--12--10--12/14~~----------------------15----------15------------------------->
D>--10/12---------------------------------------------------------------------------------------------->

e>--13--------13--15--13--15/17~~~~~~~~~~~~17\15-13-15-13-15-15/17~~~19~~15/17~~~~~~~~~~>
B>----15-13h15-------------------------------------------------------------------------->
G>-------------------------------------------------------------------------------------->
D>-------------------------------------------------------------------------------------->

e>--17\13--13~---13~13~---13~13~---13~13~----13~13~---------------------------------->
B>------------15-------15-------15-------15--------15\13----------------------------->
G>-------------------------------------------------------14--12/14\12--10h12p10~~~~~~>
D>----------------------------------------------------------------------------------->

e>--------------------------------------------------|
B>--------------------------------------------------|
G>--------10-10-10--12/14\12--10--12/14~h12/14~~~~~~|
D>--10/12-------------------------------------------|


        F
2. Solamente te pido un favor
                 Bb
   toma este puñal que es mejor que yo
               F
   y unde su fuerza ¿.................?
                  Bb
   y arranca la pena con todo el dolor.

          Dm                   Bb
   Todos saben que pronto me voy
          Dm                  Bb
   desde ya hasta la plaza mayor
              Dm
   y aunque todo ha cambiado
    F                       C
   nunca he olvidado el idiota que soy.


   CORO...


Letra subida por: Anónimo

Discos en los que aparece este acorde: Primero En Mojarme , Nada Ha Cambiado

El acorde de Quedate de Christian Meier es una versión de la canción original realizada por colaboradores/usuarios de Coveralia.

¿Has encontrado algún error en esta página? Envíanos tu corrección del acorde