música
Buscador

Acorde de Que Sera de Mi - Emanuel Ortega

Letra de Que Sera de Mi

INTRO: F Bb - F C *(Los acordes se tocan a la vez que el punteo)



e---------------------------------------------

B---9/11--9-------------9/11--9---------------

G-------------11--7/8-------------11--7--8--8-

D---------------------------------------------

A---------------------------------------------

E---------------------------------------------



F Bb

Tal ves sea muy tarde para comprender

C F

tanto desencuentro a pesar del querer

Dm Gm

si fuimos de a poco perdiendo la fe

Bb C

cuando uno juega puede perder

F Bb

como una piedra cede a la furia del mar

Am Dm

se fue gastando nuestra verdad

Bb F

como un grano de arena

Bb F

que arrastró la tormenta

Bb C

y en la playa no hallaremos jamás.





F C Dm

Que será de mi mañana

Bb Gm C

sin la música de tu alma

Am Dm

ah tarde será lloraré en soledad

Bb C F

y el sol no saldrá jamás.





e---------------------------------------------

B---9/11--9-------------9/11--9---------------

G-------------11--7/8-------------11--7--8--8-

D---------------------------------------------

A---------------------------------------------

E---------------------------------------------

https://www.coveralia.com/acordes/que-sera-de-mi-emanuel-ortega.php



F Bb

No quiero escuchar de tu boca un adiós

C F

si en el perderé lo mejor de los dos

Dm Gm

si amar es nunca tener que pedir perdón

Bb C

no rompas mi pobre corazón

F Bb

se amo y te resisto a dejarte partir

Am Dm

lo nuestro es una historia sin fin

Bb F

creo que vale la pena

Bb F

si es que algo nos queda

Bb C

por favor no lo dejemos morir.





F C Dm

Que será de mi mañana

Bb Gm C

sin la música de tu alma

Am Dm

ah tarde será lloraré en soledad

Bb C F C

y el sol no saldrá jamás.





F C Dm

Que será de mi mañana

Bb Gm C

sin la música de tu alma

Am Dm

ah tarde será lloraré en soledad

Bb C Dm

y el sol no saldrá jamás

Bb C F

y el sol no saldrá jamás

F-C F-C F-C F-C F-C F-C F-C F-C F

uh uh uh jamás.

Letra subida por: Anónimo

Discos en los que aparece este acorde: Presente Imperfecto

El acorde de Que Sera de Mi de Emanuel Ortega es una versión de la canción original realizada por colaboradores/usuarios de Coveralia.

¿Has encontrado algún error en esta página? Envíanos tu corrección del acorde