música
Buscador

Acorde de Que Mas Da - Efecto Mariposa

Letra de Que Mas Da



RE LA SI SOL RE LA SI SOL

e|--------------------------------------------------------

B|--------------------------------------------------------

G|-6-7-6-7-6-7-6-7......--6-7-6-7-6-7-6-7.......----------

D|--------------------------------------------------------

A|--------------------------------------------------------

E|--------------------------------------------------------





RE LA SIm SOL RE

Me dijo adiós, y después se fue

LA SIm SOL RE

y aquí estoy yo, es tan simple

LA SIm SOL

ya no hay más, entiéndelo

SIm LA SOL

que frío entre tu y yo



RE LA SIm SOL RE

Me dijo adiós, sin mirarme

LA SIm SOL RE

no me importó, no hay nada que nos ate

LA SIm SOL

ya no hay más, ya no hay por qué

SIm LA SOL

dar la vida por él



Y si volviera, me iré si vuelve



quizá no quiera volverle a ver



MI SI DO#m

Si te pierdo qué más da

LA MI SI DO#m

tu nunca me has querido y me da igual

LA MI RE#m DO#m SI LA SI

para ti solo he sido un juego, una historia más, oooh

MI SI DO#m LA MI

Si te pierdo qué más da, que más da me da igual



RE LA SI SOL RE LA SI SOL

e|--------------------------------------------------------

B|--------------------------------------------------------

G|-6-7-6-7-6-7-6-7......--6-7-6-7-6-7-6-7.......----------

D|--------------------------------------------------------

A|--------------------------------------------------------

E|--------------------------------------------------------



RE LA SIm SOL RE

Me dijo adiós, sin preguntarme

LA SIm SOL RE

no me dolió, no quise derrumbarme

LA SIm SOL

si solo fui, otra mujer

SIm LA SOL

https://www.coveralia.com/acordes/que-mas-da-efecto-mariposa.php
lo siento solo por él





Y si volviera, me iré si vuelve



no hay vuelta atrás, ya no lo haré





MI SI DO#m

Si te pierdo qué más da

LA MI SI DO#m

tu nunca me has querido y me da igual

LA MI RE#m DO#m SI LA SI

para ti solo he sido un juego, una historia más, oooh

MI SI DO#m

Si te pierdo qué más da

LA MI SI DO#m

Aún me queda vida y quiero más

LA MI RE#m

Lo que importa es vivir sin miedo

DO#m SI LA SI DO RE

Que aún hay tiempo y yo, ahora quiero maaaaaás

LA SI DO RE MI

si tu no estaaaás, que mas dáaáaáaáaáaá



RE LA SI SOL

e|-------------------------------------

B|-------------------------------------

G|-----2-------2-------2-------2-------

D|-0-0---0---0---0---0---0---0---0----- x 3

A|---------0-------2-------------------

E|-------------------------3-----------



Me dijo adiós, y después se fue...



SOLO: MI, SI, DO#m, LA



MI SI DO#m

Si te pierdo qué más da

LA MI SI DO#m

tu nunca me has querido y me da igual

LA MI RE#m DO#m SI LA SI

para ti solo he sido un juego, una historia más, oooh

MI SI DO#m

Si te pierdo qué más da

LA MI SI DO#m

Aún me queda vida y quiero más

LA MI RE#m

Lo que importa es vivir sin miedo

DO#m SI LA SI

que aún hay tiempo y yo, ahora quiero más.



RE, LA, SIm, SOL

RE, LA, SIm, SOL, RE.



Letra subida por: Anónimo

Discos en los que aparece este acorde: Metamorfosis , Metamorfosis 2 ,

El acorde de Que Mas Da de Efecto Mariposa es una versión de la canción original realizada por colaboradores/usuarios de Coveralia.

¿Has encontrado algún error en esta página? Envíanos tu corrección del acorde