música
Buscador

Acorde de Que El Viento Borro Tus Manos - Almendra

Letra de Que El Viento Borro Tus Manos

Cm7     X-3-5-3-4-3-|

Gm7 3-5-3-3-3-3-|

Ab6/7 4-6-4-5-6-4-|

F 1-3-3-2-1-1-|

F7 1-3-1-2-4-1-|

Dbmaj7 x-4-6-5-6-4-|

Bb 6-8-8-7-6-6-|

Bb7 6-8-6-7-9-6-|

Bb6/7 6-8-6-7-8-6-|

Bb7* 6-8-6-7-6-6-|



Intro



e---------------------|

b---3---4---5---4---3-|

g---3---4---5---4---3-|

d---2---3---4---3---2-|

a---3---4---5---4---3-|

E---------------------|



Cm7 Gm7 Ab6/7



---10--8----------------9p8--------5--3--5--3---------------|

---8---8---11--10---8---8-----11---3--3--3--3--------6---6--|

---8-------8--------8---8----------3--3--3--3--------5---5--|

---8-------------------------------3-----------------6---6--|

------------------------------------------------5/6------6--|

------------------------------------------------------------|



Verso:

https://www.coveralia.com/acordes/que-el-viento-borro-tus-manos-almendra.php



Cm7 Gm7 Ab6/7



---10--8---9p8---6---5---3---5---3---------------|

---8---8---8-----8---3---3---3---3--------6---6--|

---8---8---8---------3---3---3---3--------5---5--| X2

---8-----------------3--------------------6---6--|

-------------------------------------5/6------6--|

-------------------------------------------------|



Estribillo



F F7 Gm7

Donde estas ahora

Dbmaj7 Gm7

que el viento borro tus manos



F F7 Gm7

Donde estas ahora

Dbmaj7

tu cara es muy gris

Gm7

tu imagen se va



Bb - Bb7 - Bb6/7 - Bb7*







Letra subida por: Anónimo

Discos en los que aparece este acorde: Almendra

El acorde de Que El Viento Borro Tus Manos de Almendra es una versión de la canción original realizada por colaboradores/usuarios de Coveralia.

¿Has encontrado algún error en esta página? Envíanos tu corrección del acorde