música
Buscador

Acorde de Puteiro Em João Pessoa - Raimundos

Letra de Puteiro Em João Pessoa

Tom: D





Riff1



E |-------------------------------------------------------------|

B |-------------------------------------------------------------|

G |----4--4-4----4---4---4--4-4---------------------------------|

D |----4--4-4----4---4---4--4-4---------------------------------|

A |----2--2-2--0/2-0/2--0/2-2-2---------------------------------|

E |-------------------------------------------------------------|



Intro(violões):um toca (riff1) e o outro:



E |----------------------------------------------------------5-------------7|

B |12-12-12-10-10------12--12-12-12-----------------------5-7-7--7-7-7-10-7-|

G |11-11-11-9--9--9/11-11--11-11-11-7-7-4-6-4--4-4-4-6-4-6------------------|

D |9--9--9--7--7--9/11-9---9--9--9--7-7-------------------------------------|

A |---------------7/9---------------5-5-------------------------------------|

E |-------------------------------------------------------------------------|





(riff1)

A vida me presenteou com dois primos já marmanjo

um, muito justo, era o Augusto e o safado era o Berssange

D5 E5* (riff1)

Numa tarde ensolarada toda aquela criançada tomando refrigerante...

D5 E5*

Com a família embebedada foi mais fácil armar uma bimbada

(riff1)

prum recém adolescente

E5 G5 (riff1)

Pois foi Berssange, primo velho e cancrado, que com muito do cuidado

chegou pra Augustinho e disse: tu visse?

D5 E5*

Dudu já tá alucinado, já é meio caminho andado

(riff1)

pra rolinha comer alpiste

E5

E pro rapaz não ficar triste vamo onde as nêga são ativa

G5 A5

não há em toda João Pessoa lugar melhor que o Roda Viva

E foi pra lá que nóis rumamos quase nos desenfreamos

(riff1)

Nóis num tinha nenhum plano e os cabra foram saindo

e eu atrás ía gritando:

onde é que cês tão me levando

A5

voltar e buscar mainha ela ficou no bar sozinha

Ô menino abobado deixa mainha pra painho

Venha comigo e Augustinho

(riff1)

tu vai ser inaugurado

pois tu sabe,na família,nunca teve afrescalhado.

E5

https://www.coveralia.com/acordes/puteiro-em-joao-pessoa-raimundos.php

Chegar no Roda Viva tu vai ser homenageado



Riff2



E |---------------|

B |---------------|

G |---------------|

D |---------------|

A |-2--4-5-4-5-2--|

E |-0--2/3-2/3-0--|





(riff2)(várias vezes) A5



(riff2)(2X)

Quando eu cheguei no recinto o forró já tava bravo

A5 G5

Bando de nêgo suado dançando com as rapariga

(riff2)(2X)

e o forró comia solto e veio um véio com os óio torto

A5 G5

de tanto beber cachaça e disse:

(riff2)(2X)

Essa menina é massa,vai te deixar arretado

A5 G5

Meu primo me olhou de lado e disse:coitado

(riff2)(2X)

Era uma quenga fedorenta,daquelas da mais nojenta

A5 G5

mas se você não aguenta você a leva para o quarto

(riff2)(2X) A5 G5

Ela pegou no meu pau pôs a boca e depois ficou de quatro...



(riff2)(2X) A5



(riff1)

Foi num puteiro em João Pessoa,

D5

eu descobri que a vida é boa

E5*

foi minha primeira vez...



e termine com: B5





Acordes:



|A5 |G5 |E5 |B5 |E5*|D5 |

E |---|---|---|---|---|---|

B |---|---|---|---|---|---|

G |---|---|---|-4-|-9-|-7-|

D |-7-|-5-|-2-|-4-|-9-|-7-|

A |-7-|-5-|-2-|-2-|-7-|-5-|

E |-5-|-3-|-0-|---|---|---|

Discos en los que aparece este acorde: Raimundos , Cesta Basica , Mtv Ao Vivo (Dvd) , Roda Viva , Roda Viva (Dvd) , Mtv Ao Vivo

El acorde de Puteiro Em João Pessoa de Raimundos es una versión de la canción original realizada por colaboradores/usuarios de Coveralia.

¿Has encontrado algún error en esta página? Envíanos tu corrección del acorde