música
Buscador

Acorde de Pudriendo - Fobia

Letra de Pudriendo

Fig. 1



E----------------------------------------------------------------------------

B----------------------------------------------------------------------------

G---------------------------2-----0---0--------------------------------------

D---------5------4-x-4--0-0-0-0-0-0-0-0--------5-----4-x-4------5---4-5-4----

A---3--3--3--3-3-3-3-3---------------------2-2-2-2-2-2-2-2--3-3-3-3-3-3-3----

E----------------------------------------------------------------------------





Intro: Fig. 1 (repetida 2 veces)





Estrofa 1:



Fig.1 (repite una vez por cada linea)



En una oscura noche

Penso que el mundo se acababa

Que tiempo ya no pasaria

Y que su alma se gastaba





Coro:



G A Bm Bm A G

Se esta pudriendo y se esta pudriendo mas

G A Bm A G

Desde hace un rato que se escurre y no se secara jamas

G A Bm Bm A G

El solo espera que lo lleven a enterrar

G A Bm

Feliz esta porque se va







Estrofa 2:



Fig.1 (repite una vez por cada linea)



En una oscura noche

Salio a la calle a buscarla

Y al ver que no pudo encontrarla

Dejo su alma a la noche





Coro:



https://www.coveralia.com/acordes/pudriendo-fobia.php
G A Bm Bm A G

Se esta pudriendo y se esta pudriendo mas

G A Bm A G

Desde hace un rato que se escurre y no se secara jamas

G A Bm Bm A G

El solo espera que lo lleven a enterrar

G A Bm Bm

Feliz esta porque se va, se va!!





Puente:

Fig. 2 (repetida 4 veces)





A4 A A2 A

E----------------------------------------------------------------------

B---3-----3-3-3----2----2--2--2-----0-----0-0-0-----2----2--2--2-------

G---2-----2-2-2----2----2--2--2-----2-----2-2-2-----2----2--2--2-------

D---2-----2-2-2----2----2--2--2-----2-----2-2-2-----2----2--2--2-------

A---0-----0-0-0----0----0--0--0-----0-----0-0-0-----0----0--0--0-------

E----------------------------------------------------------------------







Coro:



G A Bm Bm A G

Se esta pudriendo y se esta pudriendo esta pudriendo

G A Bm Bm A G

Se esta pudriendo y se esta pudriendo esta pudriendo mas

G A Bm Bm A G

El solo espera que lo lleven a enterrar

G A Bm Bm

Feliz esta porque se va

G A Bm Bm

Feliz esta porque se va

G A Bm

Feliz esta porque se va





Notas: En el coro se puede usar los acordes tradicionales o la

forma 'barr', o se puede variar para dar efecto:

Tradicional: G (320003) A (002220) Bm (x24432)

Barr: G (355433) A (577655) Bm (799777)





Letra subida por: Anónimo

Discos en los que aparece este acorde: Fobia , Pastel (En Vivo)

El acorde de Pudriendo de Fobia es una versión de la canción original realizada por colaboradores/usuarios de Coveralia.

¿Has encontrado algún error en esta página? Envíanos tu corrección del acorde