música
Buscador

Acorde de Promesas De Ayer - Ariel Rot

Letra de Promesas De Ayer



Intro



||-----------------|| ||----------------||

||-----------------|| ||----------------||

||-----------------|| X 3 ||----------------||

||-----------------|| ||----------------||

||-0-2-3-3-2-0-----|| ||--0-2-3-3-2-0---|| ÚLTIMA

||-------------3---|| ||--------------0-||





El siguiente riff se hace cada vez que cantan “uhuhuhuhuh”

MIm LAm

|------------------------------|

|------------------------------|

|--2b---0------2---4-5--2------| X 3 RIFF1

|---------2--0------------5--2-|

|------------------------------|

|------------------------------|



MIm LAm MIm LAm

Me arrastraste por el suelo, y ahora soy tu prisionero

SOL DO LA7

que alguien llame a un experto que calme este incendio,

RE7

que apague este fuego.

MIm LAm MIm LAm

Me dijiste “no te quiero”, sin darle casi importancia

SOL DO LA7 RE7

yo me derrumbe con elegancia mientras tu fumabas quemándome el sombrero.





SOL SOL7 DO

Y ahora cargo con resignación estas plegarias no atendidas

https://www.coveralia.com/acordes/promesas-de-ayer-ariel-rot.php

LA7 RE7

pero de qué sirve rezar y si nunca aprendí a decir amen.

SOL SOL7 DO

Tengo la cabeza llena de promesas incumplidas

LA7 RE7

cómo duele recordar las promesas de ayer.



RIFF1

(EN LA ESTROFA Y ESTRIBILLO SIGUIENTES SE REPITE TODO)



Me tiraste el anzuelo para cazar tiburones

yo pensaba que en mi tumba nunca faltarían flores.

Me dijiste “no te quiero”, disfrutaste la venganza

y yo pase toda la noche bailando la samba sin esperanza.



Y ahora cargo con resignación estas plegarias no atendidas

pero de qué sirve rezar y si nunca aprendí a decir amen.

Tengo la cabeza llena de promesas incumplidas

cómo duele recordar las promesas de ayer.



MIm FA#m SOL LA MIm FA#m SOL

Cultive con cariño esa rosa y una mañana ventosa salió

RE

volando de mi jardín



SOLO(EL RITMO IGUAL QUE EN LA ESTROFA)

SOL DO LA7 RE7

la noche bailando la samba



ESTRIBILLO Y RIFF





Letra subida por: Anónimo

Discos en los que aparece este acorde: Ahora Piden Tu Cabeza

El acorde de Promesas De Ayer de Ariel Rot es una versión de la canción original realizada por colaboradores/usuarios de Coveralia.

¿Has encontrado algún error en esta página? Envíanos tu corrección del acorde