música
Buscador

Acorde de Por Ti - Segismundo Toxicomano

Letra de Por Ti

   D(5)         B(5)         E(5)           A(6)

Por ti por tu amor te prometo que voy a cambiar



D(5) B(5) E(5)*repetir esta quinta

por ti me voy a formalizar



D..............................B-D

Voy a sentarme en medio de un altar



D.....................D-B

para llamarte gilipollas



B.....................D-B

por ti me voy a arrodillar



B.....................B-A

por ti me voy a suicidar



G A D B

por ti dejare de juntarme con mi gente



G A D

por ti dejare de respirar



G A D B

por ti dejare de drogarme legalmente



G A D

por ti sere un tipo muy normal



D B E(5) A

https://www.coveralia.com/acordes/por-ti-segismundo-toxicomano.php

por ti no me hare alejarm de lo que crei



D B E(5)

por ti solamente para ti



D B E(5) A

por ti yo sere un modelo de mediocridad



D B E(5)

por ti sere un puto maniqui





Solo de guitarra:



e|----------------------2-2h3h2-5-3-2-5-3-2------|

B|-----------------------------5-----5-----5-3---|

G|--------------2-4-2-2~-------------------------|

D|----2-5-4-2--------5---------------------------|

A|-2-5-5------5----------------------------------|

E|-----------------------------------------------|



e|-----------------------------------------------------|

B|-----------------------------------------------------|

G|--------------------------------------------2-4-2----|

D|----2-5-4-2------2-5-4-2------2-5-4-2-5-4-2------5---|

A|-2-5-5-----5-2--5-5-----5-2--5-5-----5-----5------5~-|

E|-----------------------------------------------------|







Letra subida por: Anónimo

Discos en los que aparece este acorde: Escapa!

El acorde de Por Ti de Segismundo Toxicomano es una versión de la canción original realizada por colaboradores/usuarios de Coveralia.

¿Has encontrado algún error en esta página? Envíanos tu corrección del acorde