música
Buscador

Acorde de Politician - Cream

Letra de Politician



C#

Hey now baby, get into my big black car.

F# C#

Hey now baby, get into my big black car.

G#7 F# C#

I want to just show you what my politics are.



C#

I'm a political man and I practice what I preach.

F# C#

I'm a political man and I practice what I preach.

G#7 F# C#

So don't deny me baby, not while you're in my reach.



C#

I support the left, though I'm leaning, leaning to the right.

F# C#

I support the left, though I'm leaning to the right.

G#7 F# C#

But I'm just not there when it's coming to a fight.



C# F# C# G#7 F# C# x2

Solo



C#

Hey now baby, get into my big black car.

F# C#

Hey now baby, get into my big black car.

G#7 F# C#

I want to just show you what my politics are.





https://www.coveralia.com/acordes/politician-cream.php
Alternate:



Capo on 1st fret



C# = C

F# = F

G#7 = G7





Bass Riff:



Jack Bruce does hammer-ons during his live performance.



Riff 1:



Play Part 1 3x on long C# chord



Part 1: Part 2:

|------------------------|------|

|------------------------|------|

|------------------------|------|

|------2--3--------------|------|

|-3--4------3-4-3-4------|-3--4-|

|-------------------3--4-|------|



Riff 2:

|-----------------------------|

|-----------------------------|

|------2--3-------------------|

|-3--4------3-4-3-4------3--4-|

|-------------------3--4------|

|-----------------------------|

Letra subida por: Anónimo

El acorde de Politician de Cream es una versión de la canción original realizada por colaboradores/usuarios de Coveralia.

¿Has encontrado algún error en esta página? Envíanos tu corrección del acorde