música
Buscador

Acorde de Police And Thieves - The Clash

Letra de Police And Thieves

G                         Am 

Police and thieves in the streets

Oh yeah!

G Am

Scaring the nation with their guns and ammunition

G Am

Police and thieves in the street

Oh yeah!

G Am

Fighting the nation with their guns and ammunition

G Am

From Genesis to Revelation

G Am

The next generation will be hear me

G Am

From Genesis to Revelation

G Am

The next generation will be hear me

B A B

And all the crowd come in day by day

A

No one stop it in anyway

B A

And all the peacemaker turn war officer

C D

Hear what I say



ocultar esta pestaña Guitar Solo

E--7---7----5---3---0---3----5----0-----------

B--------------------------------------5------

G---------------------------------------------

D---------------------------------------------

A---------------------------------------------

E---------------------------------------------

E--7---7---5----3---0-------------------------

B----------------------3--5-----3-5-3-5-3-5--3

G---------------------------------------------

https://www.coveralia.com/acordes/police-and-thieves-the-clash.php
D---------------------------------------------

A---------------------------------------------

E---------------------------------------------



E--7--7----5----3-----8--8---7----5--3--------

B---------------------------------------------

G---------------------------------------------

D---------------------------------------------

A---------------------------------------------

E---------------------------------------------

E--H--5---7-----7----5------------------------

B--------------------------8--10--12---15--12-

G---------------------------------------------

D---------------------------------------------

A---------------------------------------------

E---------------------------------------------



Vocal ad lib

Police, police, police and thieves oh yeah

Police, police, police and thieves oh yeah

From Genesis oh yeah

Police, police, police and thieves oh yeah

Scaring, fighting the nation

Shooting, shooting their guns and ammunition

G Am

Police, police, police and thieves oh yeah

Police, police, police and thieves oh yeah

Here come, here come, here come

The station is bombed

Get out get out get out you people

If you don't wanna get blown up

Vocal ad lib







Letra subida por: Anónimo

Discos en los que aparece este acorde: The Collection

El acorde de Police And Thieves de The Clash es una versión de la canción original realizada por colaboradores/usuarios de Coveralia.

¿Has encontrado algún error en esta página? Envíanos tu corrección del acorde