música
Buscador

Acorde de Please Come Home For Christmas - Cody Simpson

Letra de Please Come Home For Christmas

CAPO: 1st FRET



INTRO:



A

E|-----------0-----|

B|-----------------|

G|-----0-2-0---4---|

D|---2-------------|

A|-0---------------|

E|-----------------|





VERSE:

D

Bells will be ringing

D7

The glad glad news

G

Oh what a Christmas

E

To have the blues

D

My baby's gone,

G D

I have no friends

E

To wish me greetings,

D A

Oh once again, yeah





VERSE:

D

Choirs will be singing,

D7

Oh Silent Night

G

Christmas carols

E

By candle light

D

Please come home for Christmas

G D

Please come home for Christmas

E Em D

And, if not for Christmas,

A F#m D D7

By New Year's Night





BREAK:

D7 G

Friends and relations,

C

Send salutations

D A D Am

https://www.coveralia.com/acordes/please-come-home-for-christmas-cody-simpson.php

Sure, as the stars shine above



D7 G

But this is Christmas,

Am G Gm

Yeah, Christmas my dear

G D

That time of the year

E A

To be with the one you love





VERSE:

D D7

Oh won't you tell me yeah

Am

You'll never more roam

D G

Christmas and New Years

E

Will find you home



Bm D

There'll be no more sorrow,

F#m D G

No grief and pain

E D Em

Then I'll be happy, happy

A D A

Oh, once again





INSTRUMENTAL:



D D7 G E



LEAD GUITAR FILLS:



E -5h7-----------|-5h7------------|--------------------------|--------------------|

B -----5h7-5h7---|-----5h7-5h7--5-|--------------------------|--------------------|

G -------------7-|----------------|-----7-9br---7--7h9-7h9-7-|-9br-9---7--7/9---7-|

D ---------------|----------------|-7/9-------9--------------|-------9--------9---|

A ---------------|----------------|--------------------------|--------------------|

E ---------------|----------------|--------------------------|--------------------|





OUTRO:

E D

Oh no more sorrow

Bm E G E

No grief and paaaaaain

Bm Em D

I'll be having Christmas blues again

G D

Once again

Letra subida por: Anónimo

Discos en los que aparece este acorde: The Acoustic Sessions (Ep)

El acorde de Please Come Home For Christmas de Cody Simpson es una versión de la canción original realizada por colaboradores/usuarios de Coveralia.

¿Has encontrado algún error en esta página? Envíanos tu corrección del acorde