música
Buscador

Acorde de Perro Guardián - Viejas Locas

Letra de Perro Guardián



INTRO



e|------------------

B|------------------

G|------------------

D|-10-10--8-9-10----

A|-10-10--8-9-10----

E|-8--8---6-7-8-----





e|-------------------------------------

B|-------------------------------------

G|----8-10------8---------------8b----- RIFF 1

D|s10--------10---10-10-10p8-10----10--

A|-------------------------------------

E|-------------------------------------



e|-------------------------------------

B|-------------------------------------

G|-----8-10----8---------------10------ RIFF 2

D|-s10------10---10-10-10p8-10---------

A|-------------------------------------

E|-------------------------------------



e|----------------------------------------------8--------8-

B|----------------------------------------------8--------8-

G|-----8-10----8------------------------8---10b---10b-10--- RIFF 3

D|-s10------10---10-10-10p8h9h110--s10---------------------

A|---------------------------------------------------------

E|---------------------------------------------------------



e|-------------------------------

B|-------------------------------

G|-8-10b------------------------- RIFF 4

D|-------10-8--------------------

A|-------------10-9-8------------

E|--------------------10-8-------



INTRO



RIFF 1 / RIFF 1 / RIFF 2 / RIFF 1 / RIFF 2 / RIFF 3 / RIFF 4









C5

Aca estoy otra vez RIFF 1



C5

como un perro guardian RIFF 2



F5

te voy a comer RIFF 1



C5

te voy a atacar RIFF2



F5 C5

y ellos se preparan... RIFF 3 GUAUU RIFF 4





C5

aca estoy otra vez RIFF 1



C5

y esta vez de verdad RIFF 2



F5

los cinco ya listos RIFF 1



C5

yo empiezo a cantar RIFF 2



F5 C5

nene sos un gato... RIFF 3 MIAUU







SOLO 1



e|--------------------------------------------------------------------

B|----------------------------------------------11b-11b11b11b11b------

G|-8-10b-10ba-8-----8~~---------8-10-10~~~--8~------------------------

D|--------------10------10--s10---------------------------------------

A|--------------------------------------------------------------------

E|--------------------------------------------------------------------





https://www.coveralia.com/acordes/perro-guardian-viejas-locas.php

e|--------------------------------------------------------------------

B|--------------------------------------------------------------------

G|-8~-----8-10-8-10b-10-8--10b-8-10-----------------------------------

D|----s10---------------------------10--10p8----8h9h10----------------

A|-------------------------------------------10-----------------------

E|--------------------------------------------------------------------





e|--------------------------------------------------------------------

B|--------------------------------------------------------------------

G|----------------------------------RIFF-3-(LA ULTIMA PARTE)-RIFF-4---

D|--------------------------------------------------------------------

A|--------------------------------------------------------------------

E|-11p8-8-11b-11~~---8-11b-8------------------------------------------





C5

aca estoy otra vez RIFF 1



C5

como un perro guardian RIFF 2



F5

te voy a comer RIFF 1



C5

te voy a atacar RIFF 2



F5 C5

y ellos se preparan... RIFF 3 GUAU RIFF 4





C5

de un tiro tal vez



C5

lo pueda bajar



F5

pero mira para adelante



C5

no mires para atras



F5

si, nene, ya estas muerto RIFF 3







e|--------------------------------------------------------------------

B|-11-----11-------------------------------------11---11--------------

G|-10ba-8-10b------------8-10-10ba-8----8h10-----10ba-10ba------------

D|------------10-10--s10-------------10------10-----------------------

A|--------------------------------------------------------------------

E|--------------------------------------------------------------------





e|--------------------------------------------------------------------

B|--------------------------11-11-11----------------------------------

G|-10ba-8----8h10-8h10--10b----------10ba-8-8h10--8~------8~----------

D|--------10----------------------------------------------------------

A|--------------------------------------------------------------------

E|---------------------------------------------------8h11-------------





e|--------------------------------------------------------------------

B|------------8-11-----8-11-----8-11-----8-11-------------------------

G|----8-8-10b------10b------10b------10b------10ba-p8----10-8---------

D|-10-------------------------------------------------10-------10-----

A|--------------------------------------------------------------------

E|--------------------------------------------------------------------



e|-------8-8-----8-8-----8--------------------------------------------

B|-------8-8-----8-8-----8------------8-8----8-8----8-8----8-8--------

G|-8-10b-----10b-----10b---10ba-8-----8-8----8-8----8-8----8-8----10b-

D|--------------------------------10------10-----10-----10-----10-----

A|--------------------------------------------------------------------

E|--------------------------------------------------------------------



e|-----------8--------8--6-7-8----|

B|-----------8--------8--6-7-8----|

G|-----8-10b---10b-10-------------|

D|-s10----------------------------|

A|--------------------------------|

E|--------------------------------|







Letra subida por: Anónimo

Discos en los que aparece este acorde: Contra La Pared

El acorde de Perro Guardián de Viejas Locas es una versión de la canción original realizada por colaboradores/usuarios de Coveralia.

¿Has encontrado algún error en esta página? Envíanos tu corrección del acorde