música
Buscador

Acorde de Perfect Planet - Smash Mouth

Letra de Perfect Planet



G5 E5 D5 C5 G D Am C E F#m B5

e|----------------------------3----x---5----x---0---2----x----|

B|----------------------------3----7---5----5---0---2----x----|

G|----------------------------4----7---5----5---1---2----4----|

D|------12---9----7----5------5----7---7----5---2---4----4----|

A|------10---7----5----3------5----5---7----3---2---4----2----|

E|----------------------------3----x---5----x---0---2----x----|





Riff 1

e|------------------------------------------------------------|

B|------------------------------------------------------------|

G|------------------------------------------------------------|

D|------------------------------------------------------------|

A|----10----7-7----5-5-----3-3--------------------------------|

E|------------------------------------------------------------|







[Riff 1] x2



[Verse]

G5 E5 D5 C5

I met this dude the other day at a sports bar

G5 E5 D5 C5

We had a beer, shot some pool, watchin' NASCAR

G5 E5 D5 C5

We talked about how everything was falling apart

G D

But here we are now, We'll make it some how



[Chorus]

G D Am

Because the world just keeps on spinning round and round

C

(round and round)

G D Am

Tell me we're so damn lost, we can't be found

C

(can't be found)

G D Am

How much better can it get? Ain't seen nothing yet...

C

It's a perfect planet

G D Am

How much better can it get? Haven't broke a sweat...

C

It's a perfect planet



[Riff 1] x2

It's a perfect planet





[Verse]

G5 E5 D5 C5

So this dude he said his girlfriend left him last night

G5 E5 D5 C5

She swore it's over, never call, it was a big fight

G5 E5 D5 C5

Shake it off and go like it's all right

https://www.coveralia.com/acordes/perfect-planet-smash-mouth.php

G D

No more thinking, keep on drinking





[Chorus]

G D Am

Because the world just keeps on spinning round and round

C

(round and round)

G D Am

Tell me we're so damn lost, we can't be found

C

(can't be found)

G D Am

How much better can it get? Ain't seen nothing yet...

C

It's a perfect planet

G D Am

How much better can it get? Haven't broke a sweat...

C

It's a perfect planet





[Bridge]

E F#m

And even though it seems

G E

we're falling fast and never get enough

F#m G

And even though it seems we'll never have enough

E5

We're still alive

B5

So alive





[Riff 1] x2

How much better can it get

Ain't seen nothing yet

It's a perfect planet





[Chorus]

G D Am

Because the world just keeps on spinning round and round

C

(round and round)

G D Am

Tell me we're so damn lost, we can't be found

C

(can't be found)

G D Am

How much better can it get? Ain't seen nothing yet...

C

It's a perfect planet

G D Am

How much better can it get? Haven't broke a sweat...

C

It's a perfect planet

Letra subida por: Anónimo

Discos en los que aparece este acorde: Magic

El acorde de Perfect Planet de Smash Mouth es una versión de la canción original realizada por colaboradores/usuarios de Coveralia.

¿Has encontrado algún error en esta página? Envíanos tu corrección del acorde