música
Buscador

Acorde de Pequeñita - El Canto Del Loco

Letra de Pequeñita

A#m 

Te vi venir \

F# \

por tus ojos supe que si \

G# BIS

quien me iba a decir /

F# F /

tu me engañarias /



A#m

Nadie me habló

F#

no es posible para el amor

G#

que tu fuiste y no me dejaste ver

F# F

tu carita



G#

Pequeñita

A#m

donde vas pequeñita

G#

no me fio ni un pelo

A#m

de tu carita bonita



G#

Pequeñita

A#m

donde vas pequeñita

G#

no me fio ni un pelo

F# F

de tu carita bonita



SOLO 1



E:----------------------------------------------------------

B:-----------------------------2---------------------------4

G:--1\3--3--3--3--1\3--3--3--3---3--3--3--3--1\3--3--3--3---

D:----------------------------------------------------------

A:----------------------------------------------------------

E:----------------------------------------------------------



E:---------------------------------------

B:---------------------------4\6--4--2--1

G:--3--3--3--3--1\3--3--3--3-------------

D:---------------------------------------

A:---------------------------------------

E:---------------------------------------



A#m

Vivir sin sol

F#

no es posible para el amor

G#

y si la luna, la noche llora

F# F

y sin tu carita vago yo



A#m

Ya no hay un sol

F#

y la luna ya se marchó

G#

solo quedan estrellas pequeñas

F# F

que me recuerdan tu voz



G#

Pequeñita

A#m

donde vas pequeñita

G#

https://www.coveralia.com/acordes/pequenita-el-canto-del-loco.php

no me fio ni un pelo

A#m

de tu carita bonita



G#

Pequeñita

A#m

donde vas pequeñita

G#

no me fio ni un pelo

F# F

de tu carita bonita



SOLO 2



E:---------------------------------------------------------

B:-----------------------------2--------------------------4

G:--1\3--3--3--3--1\3--3--3--3---3--3--3--3--1\3--3--3--3--

D:---------------------------------------------------------

A:---------------------------------------------------------

E:---------------------------------------------------------



E:--------------------------------------------

B:-----------------------------------2\4--4\6-

G:--3--3--3--3--1\3--3--3--3--3--1\3----------

D:--------------------------------------------

A:--------------------------------------------

E:--------------------------------------------



G#

Pequeñita

A#m

donde vas pequeñita

G#

no me fio ni un pelo

A#m

de tu carita bonita



G#

Pequeñita

A#m

donde vas pequeñita

G#

no me fio ni un pelo

F# F

de tu carita bonita



G#

Pequeñita

A#m

donde vas pequeñita

G#

no me fio ni un pelo

A#m

de tu carita bonita



G#

Pequeñita

A#m

donde vas pequeñita

F# F

no me fio ni un pelo

A#m

de tu carita bonita



ACORDES:

A#m G# F# F

E:--1----4----2----1

B:--2----4----2----1

G:--3----5----3----2

D:--3----6----4----3

A:--1----6----4----3

E:--1----4----2----1

Letra subida por: Anónimo

Discos en los que aparece este acorde: El Canto Del Loco , En Directo Sala Caracol , Pequeños Grandes Directos ,

El acorde de Pequeñita de El Canto Del Loco es una versión de la canción original realizada por colaboradores/usuarios de Coveralia.

¿Has encontrado algún error en esta página? Envíanos tu corrección del acorde