música
Buscador

Acorde de Pepinillo Marino - Fobia

Letra de Pepinillo Marino



Guitarra de Paco en el intro y en los versos:

e-x-4-x-4-x-4-x-7-4-------

b-x-5-x-5-x-5-x-5-5-------

g-x-4-x-4-x-4-x-----------

D-------------------------

A-------------------------

E-------------------------



La parte de Iñaki en el intro y versos la pueden hacer asi:

e---------7--------

b-9-9-9-9---9------

g------------------

D------------------

A------------------

E------------------



Verso:

E

Hay pero ya no seas asi

Y di porque no quieres ir

A chapotear

Bajo del mar

Hay pero ven nomas tantito

Voy a enseñarte un pescadito

Que al nadar

Puede chiflar



Coro:

C F

Y veras al pepinillo marino

G F

Contemplando el universo submarino



https://www.coveralia.com/acordes/pepinillo-marino-fobia.php


Paco en el coro:



Esto va con palm mute:

e-----------------------------------------------

b-----------------------------------------------

g--------5-5--------7-7-------------------------

D----5-5---------5-5------------3-3-------------

A-3-3--------3-3------------3-3---------3-3-5-5-

E-----------------------1-1---------1-1---------



Verso:

Pero no seas tan remilgosa

Alguna vez has visto cosa

Mas comun

Como un atun

Y ven animate a pasar

Que aqui no tienes que pagar

Para probar

Un calamar

Coro:

Y veras al pepinillo marino

Contemplando el universo submarino

Y veras al pepinillo marino

Conquistando el universo submarino



Y veras al pepinillo marino

Contemplando el universo submarino

Y veras al pepinillo

Conquistando el universo submarino



Y veras al pepinillo...



Letra subida por: Anónimo

Discos en los que aparece este acorde: Pastel (En Vivo)

El acorde de Pepinillo Marino de Fobia es una versión de la canción original realizada por colaboradores/usuarios de Coveralia.

¿Has encontrado algún error en esta página? Envíanos tu corrección del acorde