música
Buscador

Acorde de Peil Morena (Banda) - Thalia

Letra de Peil Morena (Banda)



Intro: Dm -Gm - C - F - A7





E | -----5-5-5----3-3-5---1-1----1-1-3-5----3-6-6--3-3---------

B |--------6-6-6---5-5-6---3-3----3-3-5-6----5-8-8--5-5--------

G | -----------------------------------------------------------

D |------------------------------------------------------------

A |------------------------------------------------------------

E |------------------------------------------------------------



E | -------6-6-6-6---5-5-6----3-3---6-6-6----8--8-8------------

B |---------8-8-8-8---6-6-8----5-5---8-8-8----10-10-10---------

G | -----------------------------------------------------------

D |-----------------------------------------------------------

A |-----------------------------------------------------------

E |-----------------------------------------------------------



E | ----------------------------------------------------------

B |---------*8p6-5---5-6-5-------------------------------------

G | ---------------7------------------------------------------

D |------------------------------------------------------------

A |------------------------------------------------------------

E |------------------------------------------------------------





Dm

Es la magia de tu cuerpo

Gm

o el perfume de tu aliento

C

es el fuego de tu hoguera

F A7

que me tiene prisionera



A7

El veneno dulce de tu encanto

Dm

es la llama que me va quemando

C

es la miel de tu ternura

F

la razón de mi locura

Gm

No soy nada

Dm

sin la luz de tu mirada

C

sin el eco de tu risa

F A7

que se cuela en mi ventana



Gm

Eres dueño del calor

Dm

sobre mi almohada

C

de mis noches de nostalgia

F A7

de mis sueños y esperanzas



Coro:

Dm

Eres piel morena

Gm

canto de pasión y arena

C

eres piel morena

F A7

noche bajo las estrellas

Dm

eres piel morena

Gm

playa, sol y palmeras

C

eres piel morena

F A7

sueño de mi primavera



Gm

Son tus besos

Dm

dulce fruta que me embriaga

C

que se lleva mis tristezas

F A7

y devuelve al fin la calma

Gm

Prisionera de tu amor

Dm

en la alborada

C

de tus besos, tus caricias

F A7

que se quedan en el alma



Coro:

Dm

Eres piel morena

Gm

canto de pasión y arena

C

eres piel morena

F A7

noche bajo las estrellas

Dm

eres piel morena

https://www.coveralia.com/acordes/peil-morena--banda--thalia.php

Gm

playa, sol y palmeras

C

eres piel morena

F A7

sueño de mi primavera



Gm

Son tus besos

Dm

dulce fruta que me embriaga

C

que se lleva mis tristezas

F A7

y devuelve al fin la calma

Gm

Prisionera de tu amor

Dm

en la alborada

C

de tus besos, tus caricias

F A7

que se quedan en el alma



Solo: Am7 Dm 4x



A7 Dm

Piel morena eres cumbia, sol y arena ( coros)

A7 Dm

piel morena, mi delirio y mi condena

A7

Es la magia de tu cuerpo

Dm

o el perfume de tu aliento

A7

es el fuego de tu hoguera

Dm

que me tiene prisionera, ay caramba



A7 Dm

Piel morena eres cumbia, sol y arena ( coros)

A7 Dm

piel morena, mi delirio y mi condena



A7

Eres suave como el viento

Dm

eres dulce pensamiento

A7

eres sol de mis trigales

Dm

eres miel de mis cañales



Gm

Son tus besos

Dm

dulce fruta que me embriaga

C

que se lleva mis tristezas

F A7

y devuelve al fin la calma

Gm

Prisionera de tu amor

Dm

en la alborada

C

de tus besos, tus caricias

F A7

que se quedan en el alma



Coro:



Dm

Eres piel morena

Gm

canto de pasión y arena

C

eres piel morena

F A7

noche bajo las estrellas

Dm

eres piel morena

Gm

playa, sol y palmeras

C

eres piel morena

F A7

sueño de mi primavera

Dm

eres piel morena

Gm

porque solo a tu lado soy feliz

C

eres piel morena

F A7

tengo tantas cosas para ti

Dm

eres piel morena

Gm

voy fundiéndome en tu hoguera lentamente

C

eres piel morena

F A7

tu me tienes prisionera



Outro: Dm -Gm - C - F - A7…. (punteado)

Letra subida por: Anónimo

Discos en los que aparece este acorde: Piel Morena (Con Banda) (Cd Single)

El acorde de Peil Morena (Banda) de Thalia es una versión de la canción original realizada por colaboradores/usuarios de Coveralia.

¿Has encontrado algún error en esta página? Envíanos tu corrección del acorde