música
Buscador

Acorde de Pecadora - Alejandro Fernandez

Letra de Pecadora

                Lam            Lam

E-----------------------------------------------------------------

B-----------------------------------------------------------------

G-----------------------------------------------------------------

D------2-3-2------------2-3-2-------------------------------------

A--0-3-------3------0-3-------3-----------------------------------

E-----------------------------------------------------------------

Lam

E------------------------------------------------------------------

B------------------------------------------------------------------

G------------------------------------------------------------------

D------2-3-2-------2-3-2-------2-3-2-------2-3-2-------------------

A--0-3-------3-0-3--------3-0-3-------3-0-3------3-----------------

E------------------------------------------------------------------



E--------------3-1--------------------3-1-------------------------

B--------------5-3-5------------------5-3-5-----------------------

G----2-4-5-2-5-------5-2----2-4-5-2-5-------7---------------------

D--2----------------------2---------------------------------------

A-----------------------------------------------------------------

E-----------------------------------------------------------------

Lam

E-----------------------------------------------------------------

B-----------------------------------------------------------------

G-7-7-7-7-5-9-7-5-4-5-4-2----2-4-5---5-4---4-2--------------------

D--------------------------2-------2-----2------------------------

A-----------------------------------------------------------------

E-----------------------------------------------------------------



Lam Sol Lam

voy a quitarle al corazon tantos sarmientos

Lam Sol Lam

que se quedaron del amor que ayer te di

FA Do

si volveran a florecer los sentimientos

Mi Lam

volvere a decir te amo por ahi



Lam Sol Lam

voy a embriagarme con el nectar de uvas nuevas

Lam Sol Lam

voy a tratar de ser feliz pero sin ti

FA Do

si un pecado y una penitencia llevas

Mi Lam

fue pecado capital dejarme asi

Lam Mi

que mala fuiste me trajiste penas con tu amor

Lam

te vas ahora pecadora a repartir dolor

Lam Mi

que mala fuiste me trajiste penas con tu amor

Lam

te vas ahora pecadora a repartir dolor





https://www.coveralia.com/acordes/pecadora-alejandro-fernandez.php

E--------------3-1--------------------3-1-------------------------

B--------------5-3-5------------------5-3-5-----------------------

G----2-4-5-2-5-------5-2----2-4-5-2-5-------7---------------------

D--2----------------------2---------------------------------------

A-----------------------------------------------------------------

E-----------------------------------------------------------------

Lam

E-----------------------------------------------------------------

B-----------------------------------------------------------------

G-7-7-7-7-5-9-7-5-4-5-4-2----2-4-5---5-4---4-2--------------------

D--------------------------2-------2-----2------------------------

A-----------------------------------------------------------------

E-----------------------------------------------------------------



Lam Sol Lam

voy a lavar con otros besos tu recuerdo

Lam Sol Lam

hoy quiero amnesia para no pensar en ti

FA Do

si hoy de rabia y de dolor mi alma muerdo

Mi Lam

no supiste valorar lo que te di



Lam Sol Lam

voy a embriagarme con el nectar de uvas nuevas

Lam Sol Lam

voy a tratar de ser feliz pero sin ti

FA Do

si un pecado y una penitencia llevas

Mi Lam

fue pecado capital dejarme asi

Lam Mi

que mala fuiste me trajiste penas con tu amor

Lam

te vas ahora pecadora a repartir dolor

Lam Mi

que mala fuiste me trajiste penas con tu amor

Lam

te vas ahora pecadora a repartir dolor

Lam

que mala mala

Mi

me trajiste penas con tu amor

Lam

te vas ahora pecadora a repartir dolor

Lam Lam

que mala mala mala fuiste

Mi

me trajiste penas con tu amor

Lam

te vas ahora pecadora a repartir dolor

Lam Lam

que mala mala mala fuiste

Lam

me trajiste penas

El acorde de Pecadora de Alejandro Fernandez es una versión de la canción original realizada por colaboradores/usuarios de Coveralia.

¿Has encontrado algún error en esta página? Envíanos tu corrección del acorde