música
Buscador

Acorde de Patria Al Hombro - Almafuerte

Letra de Patria Al Hombro



Intro

1. 2.

|-------------------------------------------|---------------|-------|

|-------------------------------------------|---------------|-------|

|-------------------------------------------|---------------|-------|

|-2/3/2---------2/3/2---------2/3/2---------|-----5------7--|-0--7--|

|-0/1/0--2-2-2--0/1/0--2-2-2--0/1/0--2-2-2--|-3/5/3--5/7/5--|-2--5--|

|--------0-0-0---------0-0-0---------0-0-0--|---------------|-3-----|



Verso



|-------------------------------------------------------------------|

|-------------------------------------------------------------------|

|-------------------------------------------------------------------|

|-----------------------3/4-------------------3/4-------------------|

|--22--22--5/7--22--22--1/2---22--22--5/7--2--1/2--2-5/7------------|

|--00--00--3/5--00--00--------00--00--3/5--0-------0-3/5------------|



Pre



|-------------------1--|------------------3-------------------------|

|----1--1-3--3-4--4-1--|--3--3-5--5-6--6--3-------------------------|

|----0--0-0--0-3--3----|--2--2-4--4-5--5----------------------------|

|----2--2-2--2-2--2-2--|--0--0-0--0-0--0--0-------------------------|

|----3-----------------|--------------------------------------------|

|----------------------|--------------------------------------------|



Intro



Verso



Pre



Estribillo

repite x4

|---------------------------------------------|---------------------|

|---------------------------------------------|---------------------|

|---------------------2-----------------------|---------------------|

|---7--7----------2-5----5--5-5-5--0--7--7-7--|---------------------|

|---7--7------3-5--------3--3-3-3--2--5--5-5--|---------------------|

|---5--5--3-5----------------------3----------|---------------------|





Intro



NO, NO, PIBE NO!

|-------------------------------------------------------------------|

|-------------------------------------------------------------------|

|-------------------------------------------------------------------|

|---------2--0--------------------------------2--0--------3-3-3-3---|

|---2--2--------2-----2--2--5--4--2-----2--2--------2-----1-1-1-1---|

|---0--------------3--0--------------3--0--------------3------------|





SOLO





Verso



Pre



Estribillo



Intro



https://www.coveralia.com/acordes/patria-al-hombro-almafuerte.php

Sigue esto

NO, NO, PIBE NO!

|------------------------------------------------|------------------|

|------------------------------------------------|------------------|

|------------------------------------------------|------------------|

|------------------------------------------------|------5-------7---|

|---5-7-5-7------------5-7-5-7----------5-7-5-7--|--3/5/3---5/7/5---|

|------------0-0-0-0-----------0-0-0-0-----------|------------------|



2. FINAL

|--------------------------|

|--------------------------|

|--------------------------|

|---0----7----9----9-------|

|---2----5----7----7-------|

|---3---------0----0-------|







Letra:



Se va la vida y el tiempo ha perder

Es una espina que intento quitarme.

Y así mi herida cerrada tal vez

Me da la lucha de mil libertades.



Desde temprano se puso a ladrar

Mi perro interno que morder no sabe.

Tal vez por eso no puedo aplacar

La gran manija que a diario me invade

Que me esta invadiendo a diario



Busco una estrofa llena de verdad

Que grite al mundo todo es en balde

Mas encontrarla aun no he podido

Y el sin sentido me motiva al fraude



Mientras me arrastro en pos del amor

Con la pasión de esquivar soledad,

La gran ramera prosigue su andar,

Alimentando el caos delicuencial



Me sumo a la esperanza de un nuevo amanecer

Me cargo la patria al hombro, también

Y haciendo mío los hijos de los demás

Mi sentimiento criollo no se echara a perder



En las inmensidades

No se echara a perder

En las inmensidades



Busco una estrofa llena de verdad

Que grite al mundo todo es en balde

Mas encontrarla aun no he podido

Y el sin sentido me motiva al fraude



Me sumo a la esperanza de un nuevo amanecer

Me cargo la patria al hombro, también

Y haciendo mío los hijos de los demás

Mi sentimiento criollo no se echara a perder



En las inmensidades

No se echara a perder

En las inmensidades

Letra subida por: Anónimo

Discos en los que aparece este acorde: Ultimando , 10 Años , En Vivo Obras 2009 , En Vivo Obras (Dvd) , En Vivo Obras (Dvd)

El acorde de Patria Al Hombro de Almafuerte es una versión de la canción original realizada por colaboradores/usuarios de Coveralia.

¿Has encontrado algún error en esta página? Envíanos tu corrección del acorde