música
Buscador

Acorde de Paloma Mia - Silvio Rodriguez

Letra de Paloma Mia

Intro:

Am E



Am E

Junto a tu cuello de porcelana

Am E

Yo me tendiera paloma mia

C G

Quien lo pudiera besar un día

C Am G

Quien lo posara sobre tu cama

Dm Am

Junto a tu boca de fina grana

E E/D A

Yo me durmiera, paloma mia



---------------

---6--5--3--

---------------

---------------

---5--4--2--

--------------

Dm Am

Si me quisieras cuanto querria

---------------

---3--1--0--

---------------

---------------

---2--0------

----------3--- Am

Paloma rosa me mis mañanas



C E

Junto a tu cuello de porcelana

Dm Am

Yo me tendiera paloma mia

C F

Quien lo pudiera besar un día

B7 E

Quien lo posara sobre tu cama

(VI 0-1)G F E

Quien lo posara sobre tu cama

Am G

Digo tu nombre todas los dias

E Am

Digo tu nombre paloma amada

Dm Am

https://www.coveralia.com/acordes/paloma-mia-silvio-rodriguez.php

Porque tu boca la más soñada

B7 E

Porque tu cuello y la lejania

(VI 0-1)G F E

Porque tu cuello y la lejania



Am E

Junto a tu cuello de porcelana

Am E

Yo me tendiera paloma mia

C G

Quien lo pudiera besar un día

C Am G

Quien lo posara sobre tu cama

Dm Am

Junto a tu boca de fina grana

E E/D A

Yo me durmiera, paloma mia



---------------

---6--5--3--

---------------

---------------

---5--4--2--

--------------

Dm Am

Si me quisieras cuanto querria

G C E Am

Paloma rosa me mis mañanas



ACLARACAIONES:

La intro y en algunas partes se arpegia asi:



Am E

---------5-----------------4-----------4-----------

--5---5---5-----5-----------5-----5----5----5--

----5---------5------------------4----------4-----

-----------------------------------------------------

-----------------------------------------------------

---------------------------7------------------------



El B7 queda mejor en esta posicion:

X 2 1 2 2 X





Letra subida por: Anónimo

Discos en los que aparece este acorde: Descartes

El acorde de Paloma Mia de Silvio Rodriguez es una versión de la canción original realizada por colaboradores/usuarios de Coveralia.

¿Has encontrado algún error en esta página? Envíanos tu corrección del acorde