música
Buscador

Acorde de Paint A Face - Neil Halstead

Letra de Paint A Face



Chords used:

EADGBe

Am:002210

C: 032010

Em:022000

F: 133211

G: 320033



Standard Tuning: (Capo II) [all chords and tabs relative to capo]



Intro riff and chords:

G F

e|---------------------------------|

B|---------------------------------|

G|-------0-------0---0-2-0---0-2-0-|

D|---0-2-----0-2-------------------| x2

A|---------------------------------|

E|-3-------3-------1-------1-------|





Verse 1 chords: (play intro riff throughout)

G F

Try to get the colours right, and I'll paint you face she said

G

Cos life is on the outside babe

F

And you got to try and get it right

C Am Em G F

Buy a ten-dollar camera, take a picture of everyone

C Am Em G F

Cos people change, yeah they change, changing everyday



Chorus 1 chords: (play intro riff throughout)

C Am Em G F

And I don't want to be the one that you don't recognise

C Am Em G F

Oh, I don't want to be the one, the one that's left behind



https://www.coveralia.com/acordes/paint-a-face-neil-halstead.php
Solo:

C G

e|---------------------------------|

B|---------------------------------|

G|---0-2-0---0-2-0---0-2-0---0-2-0-|

D|---------------------------------|

A|-3-------3-----------------------|

E|-----------------3-------3-------|



F C

e|---------------------------------|

B|---------------------------------|

G|---0-2-0---0-2-0---0-2-0---0-2-0-|

D|---------------------------------|

A|-----------------3-------3-------|

E|-1-------1-----------------------|



Verse 2: (use verse 1 chords)

Got a broken car yeah got a selfish heart

Running down the road with a jukebox in my head

Funny how I got to here, I don't remember how

I just want to live somewhere where the air is sweet and clear



Chorus 2: (use chorus 1 chords)

And I don't want to be the one that you don't recognise

I don't want to be the one that's left behind

I don't want to be the one that's left behind



Interlude:

Solo: x2

Intro riff: x2



Outro: (use chorus 1 chords)

And I don't want to be the one that you don't recognise

I don't want to be the one that's left behind







Letra subida por: Anónimo

Discos en los que aparece este acorde: Oh! Mighty Engine

El acorde de Paint A Face de Neil Halstead es una versión de la canción original realizada por colaboradores/usuarios de Coveralia.

¿Has encontrado algún error en esta página? Envíanos tu corrección del acorde