música
Buscador

Acorde de Pa' Olvidarme De Ella - Piso 21

Letra de Pa' Olvidarme De Ella

 Circulo de la INTRO

REm7 - SOL - DOmaj7 - LAm - LA7



Circulo del VERSO

REm - SOL - DO - MI7 - LAm



Circulo del CORO

REm - SOL - DO - MI7 - LAm - LA7



Tab del intro y final:

(Al final, el TAB se corta)

REm7 SOL

1) -----1-0-1---------1-0-1-----------3-------------3-----

2) ---1-------1-----1-------1-------3---3---------3---3---

3) -------------------------------4-------4-----4-------3-

4) -0-------------0---------------------------------------

5) -------------------------------------------------------

6) -----------------------------3-------------3-----------



DOmaj7 LAm LA7

1) -------3-------------3-------------5-----------------5-

2) -----5---5---------5---5---------5---5---------5-8-----

3) ---4-------4-----4-------4-----5-------5-----5---6-6---

4) -------------------------------------------------5-----

5) -3-------------3---------------------------------------

6) -----------------------------5-------------5-----5-----







Este TAB creo que se repite en toda la canción, y en ciertas

partes se mutea:



REm SOL

1) ---1-1---1-1---1-1---1-1---------------------------

2) ---3-3---3-3---3-3---3-3-----3-3---3-3---3-3-------

3) ---2-2---2-2---2-2---2-2-----4-4---4-4---4-4-------

4) -0-----------0---------------5-5---5-5---5-5-------

5) -------0-----------0-------------5-------------0-2-

6) ---------------------------3-----------3-----3-----



DO MI7 LAm

1) ---0-0---0-0---0-0-----------0-0---0-0---0-0---0-0-

2) ---1-1---1-1---1-1---3-3-----1-1---1-1---1-1---1-1-

3) ---0-0---0-0---0-0---1-1-----2-2---2-2---2-2---2-2-

4) ---------------------0-0---------2-----------2-----

5) -3-----------3-----2-------0-----------0-----------

6) -------3-------------------------------------------







REm

Ya no aguanto tanto trago



Te he pensado más de lo que he olvidado

SOL

Mis amigos me la tiraron



Que como siga así voy pa’l carajo

DO

Yo ya olvidé lo que es el relajo

MI7

No juego FIFA desde hace rato

LAm

Botellas a medias no me quedaron



Tomo un trago y otro trago





REm

Me da por poner dizque Dalmata y Ñejo



Y a veces escucho el consejo del viejo

SOL

La verdad es que te fuiste lejos



Quedé con la cara de pendejo

DO

Tengo una vaina guardada en el pecho

MI7

¿Será despecho?

LAm

Como huevón mirando pa’l techo



Ya lo hecho está hecho







REm

Por favor que alguien me diga



Que se toma pa’ las penas

SOL

Cuando está recién herido



Y el alcohol no ayuda

DO

Pa’ olvidarme de ella

MI7 LAm LA7

Pa’ olvidarme de ella





REm

Ya bailé con otros labios



Y me acuerdo siempre de ella

SOL

He cantado mil rancheras



Y el alcohol no ayuda

DO

Pa’ olvidarme de ella

MI7 LAm LA7

Pa’ olvidarme de ella







REm

Que descanse en paz aquí



https://www.coveralia.com/acordes/pa--olvidarme-de-ella-piso-21.php
Tú te fuiste y yo me fui

SOL

Mi cuerpo camina solo



Mi alma se fue tras de ti

DO

Tú no tienes la culpa

MI7 LAm

Que yo no me acostumbre a estar sin ti



(Yo no me acostumbro a estar sin ti)





REm

Pero si voy a olvidarte



Te lo juro por quien quiera

SOL

Solo es cuestión de tiempo

DO

Hasta que llegue una más buena que tú

MI7 LAm

Que lo haga mejor que tú





REm

Por favor que alguien me diga



Que se toma pa’ las penas

SOL

Cuando está recién herido



Y el alcohol no ayuda

DO

Pa’ olvidarme de ella

MI7 LAm LA7

Pa’ olvidarme de ella





REm

Ya bailé con otros labios



Y me acuerdo siempre de ella

SOL

He cantado mil rancheras



Y el alcohol no ayuda

DO

Pa’ olvidarme de ella

MI7 LAm LA7

Pa’ olvidarme de ella







REm ----------------------

Ya bajé Tinder en mi celular



Y subí una foto pa’ que le de match Aqui se escucha la 1ra

SOL parte del intro

Una que esté buena y me ayude a olvidarla



De mi cama no pienso sacarla

DO ----------------------

Hasta que aparezca pienso emborracharme

MI7

Al tequila duro quiero darle

LAm

A mis penas yo las quiero ahogar



Pero las cabronas ya saben nadar





REm

Ya bajé Tinder en mi celular



Y subí una foto pa’ que le de match

SOL

Una que esté buena y me ayude a olvidarla



De mi cama no pienso sacarla

DO

Hasta que aparezca pienso emborracharme

MI7

Al tequila duro quiero darle

LAm

A mis penas yo las quiero ahogar



Pero las cabronas ya saben nadar





REm

Por favor que alguien me diga



Que se toma pa’ las penas

SOL

Cuando está recién herido



Y el alcohol no ayuda

DO

Pa’ olvidarme de ella

MI7 LAm LA7

Pa’ olvidarme de ella





REm

Ya bailé con otros labios



Y me acuerdo siempre de ella

SOL

He cantado mil rancheras



Y el alcohol no ayuda

DO

Pa’ olvidarme de ella

MI7 LAm LA7

Pa’ olvidarme de ella



Letra subida por: Anónimo

Discos en los que aparece este acorde: El Amor En Los Tiempos Del Perreo

El acorde de Pa' Olvidarme De Ella de Piso 21 es una versión de la canción original realizada por colaboradores/usuarios de Coveralia.

¿Has encontrado algún error en esta página? Envíanos tu corrección del acorde