música
Buscador

Acorde de Outlaws - Alessia Cara

Letra de Outlaws





(optional) Intro:



e|--------------------------------------------5------------------------------|

B|----7---------0---------7---------7---------7----7----0---------7----------|

G|---------7---------2---------7---------7---------7---------2---------7-----|

D|---------------------------------------------------------------------------|

A|---------------------------------------------------------------------------|

E|---------------------------------------------------------------------------|



e|---------------------------------------------------------------------------|

B|---------------------------------------------------------------------------|

G|----7----------------------------------------------------------------------|

D|---------------------------------------------------------------------------|

A|-------------0--2----------------------------------------------------------|

E|---------------------------------------------------------------------------|





Verse 1:



D G

Run, run like the devil's behind us

Bm

Run to where no one can find us

G

Be my accomplice to my crime oh baby

D G

Run, run cause we're guilty as sin

Bm

Run cause we know we won't win

G

We know together we kill time





Pre-Chorus (Optional if you have a bass player, or want it to go for it acapella)



G F#/D Em

You'll never face a judge without me

D G

You'll never battle the gavel alone

(G) F#/D

And if they lock us away

Em

Then I'll be still here

D G

Proudly waiting to kill more time...





Chorus:



D G

With you... We'll be Outlaws

Bm

We'll take on the world

G

We'll be Outlaws





Verse 2:



D G

Run, run like you never did

Bm

Cause they found the evidence

G

And they found your fingerprints



All on me and baby

D G

Run, run like your life depends on it

Bm

Let's make forever in this moment

G

Tell me you love me again, Oh again





Pre-Chorus:



https://www.coveralia.com/acordes/outlaws-alessia-cara.php

G F#/D Em

And I would waste away without you

D G

You're the shine into my star

(G) F#/D Em

I'd be searching till I found you

D G

Wherever you are' You are





Chorus:

D

We'll be Outlaws

G

Partners in crime

Bm

We'll take on the world together

G

I'm Bonnie you can be Clyde

D

We'll be Outlaws

G

You and me

Bm

They'll never understand the honor

G

Among these thieves

D G

Woaaaoaooooooooohohohh

Bm G

Woahaoaoaaaaaohohohoh





Pre-Chorus:



G F#/D Em

You'll never face a judge without me

D G

You'll never battle the gavel alone

(G) F#/D

And if they lock us away

Em

Then I'll be still here

D G

Proudly waiting to kill more time...





Chorus:



D

With you

G

With you

Bm

W-i-t-h you

G

Uh, with you

D

We'll be Outlaws

G

Partners in crime

Bm

We'd take on the world together

G

I'm Bonnie you can be Clyde

D

We'll be Outlaws

G

You and me

Bm

They'll never understand the honor

G

Among these thieves

D

We'll be Outlaws'





Letra subida por: Anónimo

El acorde de Outlaws de Alessia Cara es una versión de la canción original realizada por colaboradores/usuarios de Coveralia.

¿Has encontrado algún error en esta página? Envíanos tu corrección del acorde