música
Buscador

Acorde de Out Of The Black - Royal Blood

Letra de Out Of The Black


e|----------------------------------------------------------------------|
B|(6)-------------------(6)--(6)(6)------------------(6)----------------|
G|-7--10-10-10-10-10-10--7-10-7--7-----10-10-10-10-10-10-7-10-10-10-10--|
D|-7--10-10-10-10-10-10--7-10-7--7-----10-10-10-10-10-10-7-10-10-10-10--|
A|-5--8--8--8--8--8--8---5-8--5--5-----8--8--8--8--8--8--5-8--8--8--8---|
E|----------------------------------------------------------------------|


e|-----------------|
B|(6)--------------|
G|-7--10-10-10-10--|
D|-7--10-10-10-10--|
A|-5--8--8--8--8---|
E|-----------------|


verse:

Dm Am G F (2times)
Dm Am Bb Am


 Dm          Am           G               F         
How did it feel when it came alive and took you?
Dm          Am
Out of the black 
    G                     F    
It broke your skin and shook through
         Dm    Am         Bb     Am
Every part of me, every part of you

Chorus:
E|--------------5-5-5------------------5-5-5---------------------------------|
B|--------------6-6-6------------------6-6-6---------------------------------|
G|-x--x--x--x---7-7-7-----x--x--x--x---7-7-7----------5-5-------4-4----------|
D|-x--x--x--x---7-7-7-----x--x--x--x---7-7-7-----3-3--5-5--2-2--4-4----------|
A|-x--x--x--x---5-5-5-----x--x--x--x---5-5-5-----3-3--3-3--2-2--2-2----------|
E|-x--x--x--x-------------x--x--x--x-------------1-1-------0-0---------------|  (x4)

                  Dm                     Dm       F   (C)   E   (B)


Dm           F
You made a fool out of me
               E                        Dm
And took the skin off my back running
            F
So don't breathe when I talk
           E                     Dm
Cos you haven't been spoken to
            F                       E                         Dm
I've got a gun for a mouth and a bullet with your name on it
          F                           E
But a trigger for a heart beating blood from an empty pocket



verse:

Dm Am G F (2times)
Dm Am Bb Am

Dm         Am
I never knew why
     G           F
And you didn't care when
  Dm           Am
It closed every door
      G          F
And washed away no sin

       Dm      Am
And I promised you
           Bb      Am
Like you promised me
          Dm       Am
But those vows we made
          Bb       Am
Fucked it up for free


Chorus:
E|--------------5-5-5------------------5-5-5---------------------------------|
B|--------------6-6-6------------------6-6-6---------------------------------|
G|-x--x--x--x---7-7-7-----x--x--x--x---7-7-7----------5-5-------4-4----------|
D|-x--x--x--x---7-7-7-----x--x--x--x---7-7-7-----3-3--5-5--2-2--4-4----------|
A|-x--x--x--x---5-5-5-----x--x--x--x---5-5-5-----3-3--3-3--2-2--2-2----------|
E|-x--x--x--x-------------x--x--x--x-------------1-1-------0-0---------------| (x4)

                  Dm                     Dm       F   (C)   E   (B)


Dm           F
You made a fool out of me
               E                        Dm
And took the skin off my back running
            F
So don't breathe when I talk
           E                     Dm
Cos you haven't been spoken to
            F                       E                         Dm
I've got a gun for a mouth and a bullet with your name on it
          F                           E
But a trigger for a heart beating blood from an empty pocket



e|----------------------------------------------------------------------|
B|(6)-------------------(6)--(6)(6)------------------(6)----------------|
G|-7--10-10-10-10-10-10--7-10-7--7-----10-10-10-10-10-10-7-10-10-10-10--|
D|-7--10-10-10-10-10-10--7-10-7--7-----10-10-10-10-10-10-7-10-10-10-10--|
A|-5--8--8--8--8--8--8---5-8--5--5-----8--8--8--8--8--8--5-8--8--8--8---|
E|----------------------------------------------------------------------|


e|-----------------|
B|(6)--------------|
G|-7--10-10-10-10--|
D|-7--10-10-10-10--|
A|-5--8--8--8--8---|
E|-----------------|


Dm           F
You made a fool out of me
               E                        Dm
And took the skin off my back running
            F
So don't breathe when I talk
           E                     Dm
Cos you haven't been spoken to
            F                       E                         Dm
I've got a gun for a mouth and a bullet with your name on it
          F                           E
But a trigger for a heart beating blood from an empty pocket

Bb E Dm F
Bb E Dm Am

           Bb      E
And it tortures slow
        Dm      F
Never let's you go
           Bb      E    Dm      Am 
Deals a crooked hand



Outro:
e|------------------------------|
B|(6)-------------------(6)--(6)|
G|-7--10-10-10-10-10-10--7-10-7-|
D|-7--10-10-10-10-10-10--7-10-7-|
A|-5--8--8--8--8--8--8---5-8--5-|
E|------------------------------|



Letra subida por: Anónimo

Discos en los que aparece este acorde: Royal Blood

El acorde de Out Of The Black de Royal Blood es una versión de la canción original realizada por colaboradores/usuarios de Coveralia.

¿Has encontrado algún error en esta página? Envíanos tu corrección del acorde